  0
SECTION
  2
HEADER
  9
$ACADVER
  1
AC1009
  9
$INSBASE
 10
0
 20
0
 30
0
  9
$EXTMIN
 10
0
 20
0
  9
$EXTMAX
 10
118900
 20
84100
  9
$LIMMIN
 10
0
 20
0
  9
$LIMMAX
 10
118900
 20
84100
  9
$LTSCALE
 40
100
  0
ENDSEC
  0
SECTION
  2
TABLES
  0
TABLE
  2
LTYPE
 70
     9
  0
LTYPE
  2
CONTINUOUS
 70
    64
  3
実線
 72
    65
 73
     0
 40
0.0
  0
LTYPE
  2
DASHED1
 70
    64
  3
--  --  --  --  --  --  --  --  
 72
    65
 73
     2
 40
2.5
 49
1.25
 49
-1.25
  0
LTYPE
  2
DASHED2
 70
    64
  3
----    ----    ----    ----    
 72
    65
 73
     2
 40
5.0
 49
2.5
 49
-2.5
  0
LTYPE
  2
DASHED3
 70
    64
  3
------  ------  ------  ------  
 72
    65
 73
     2
 40
5.0
 49
3.75
 49
-1.25
  0
LTYPE
  2
CENTER1
 70
    64
  3
----- - ----- - ----- - ----- - 
 72
    65
 73
     4
 40
10.0
 49
6.25
 49
-1.25
 49
1.25
 49
-1.25
  0
LTYPE
  2
CENTER2
 70
    64
  3
----------  --  ----------  --  
 72
    65
 73
     4
 40
20.0
 49
12.5
 49
-2.5
 49
2.5
 49
-2.5
  0
LTYPE
  2
PHANTOM1
 70
    64
  3
--- - - --- - - --- - - --- - - 
 72
    65
 73
     6
 40
10.0
 49
3.25
 49
-1.25
 49
1.25
 49
-1.25
 49
1.25
 49
-1.25
  0
LTYPE
  2
PHANTOM2
 70
    64
  3
--------  -  -  --------  -  -  
 72
    65
 73
     6
 40
20.0
 49
10.0
 49
-2.5
 49
1.25
 49
-2.5
 49
1.25
 49
-2.5
  0
LTYPE
  2
DOT
 70
    64
  3
-   -   -   -   -   -   -   -   
 72
    65
 73
     2
 40
2.5
 49
0.625
 49
-1.875
  0
LTYPE
  2
DUMMY
 70
    64
  3
ダミー
 72
    65
 73
     0
 40
0.0
  0
LTYPE
  2
RAND1
 70
    64
  3
ランダム線1
 72
    65
 73
     4
 40
10.0
 49
1.0
 49
-2.0
 49
3.0
 49
-4.0
  0
LTYPE
  2
RAND2
 70
    64
  3
ランダム線2
 72
    65
 73
     4
 40
14.0
 49
2.0
 49
-3.0
 49
4.0
 49
-5.0
  0
LTYPE
  2
RAND3
 70
    64
  3
ランダム線3
 72
    65
 73
     4
 40
18.0
 49
3.0
 49
-4.0
 49
5.0
 49
-6.0
  0
LTYPE
  2
RAND4
 70
    64
  3
ランダム線4
 72
    65
 73
     4
 40
22.0
 49
4.0
 49
-5.0
 49
6.0
 49
-7.0
  0
LTYPE
  2
RAND5
 70
    64
  3
ランダム線5
 72
    65
 73
     4
 40
26.0
 49
5.0
 49
-6.0
 49
7.0
 49
-8.0
  0
LTYPE
  2
LONG1
 70
    64
  3
----------  --  ----------  --  
 72
    65
 73
     4
 40
40.0
 49
32.5
 49
-2.5
 49
2.5
 49
-2.5
  0
LTYPE
  2
LONG2
 70
    64
  3
--------  -  -  --------  -  -  
 72
    65
 73
     6
 40
40.0
 49
30.0
 49
-2.5
 49
1.25
 49
-2.5
 49
1.25
 49
-2.5
  0
LTYPE
  2
LONG3
 70
    64
  3
+++++++++++++++..+++++++++++++++
 72
    65
 73
     2
 40
40.0
 49
37.5
 49
-2.5
  0
LTYPE
  2
LONG4
 70
    64
  3
+++++++++++++++..+++++++++++++++
 72
    65
 73
     2
 40
80.0
 49
75.0
 49
-5.0
  0
LTYPE
  2
LONG5
 70
    64
  3
----------  --  ----------  --  
 72
    65
 73
     4
 40
60.0
 49
37.5
 49
-7.5
 49
7.5
 49
-7.5
  0
LTYPE
  2
dashed
 70
   64
  3
-------   -------------   ------
 72
   65
 73
    2
 40
7.5
 49
6
 49
-1.5
  0
LTYPE
  2
dashed_spaced
 70
   64
  3
----        --------        ----
 72
   65
 73
    2
 40
12
 49
6
 49
-6
  0
LTYPE
  2
long_dashed_dotted
 70
   64
  3
------------- --- --------------
 72
   65
 73
    4
 40
15.25
 49
12
 49
-1.5
 49
0.25
 49
-1.5
  0
LTYPE
  2
long_dashed_double-dotted
 70
   64
  3
----------- --- --- ------------
 72
   65
 73
    6
 40
17
 49
12
 49
-1.5
 49
0.25
 49
-1.5
 49
0.25
 49
-1.5
  0
LTYPE
  2
long_dashed_triplicate-dotted
 70
   64
  3
--------- --- --- --- ----------
 72
   65
 73
    8
 40
18.75
 49
12
 49
-1.5
 49
0.25
 49
-1.5
 49
0.25
 49
-1.5
 49
0.25
 49
-1.5
  0
LTYPE
  2
dotted
 70
   64
  3
   -       -       -       -    
 72
   65
 73
    2
 40
1.75
 49
0.25
 49
-1.5
  0
LTYPE
  2
chain
 70
   64
  3
-------------- -- --------------
 72
   65
 73
    4
 40
18.5
 49
12
 49
-1.5
 49
3.5
 49
-1.5
  0
LTYPE
  2
chain_double_dash
 70
   64
  3
------------ -- -- -------------
 72
   65
 73
    6
 40
23.5
 49
12
 49
-1.5
 49
3.5
 49
-1.5
 49
3.5
 49
-1.5
  0
LTYPE
  2
dashed_dotted
 70
   64
  3
-----------     -     ----------
 72
   65
 73
    4
 40
9.25
 49
6
 49
-1.5
 49
0.25
 49
-1.5
  0
LTYPE
  2
double-dashed_dotted
 70
   64
  3
------   -----------   -   -----
 72
   65
 73
    6
 40
16.75
 49
6
 49
-1.5
 49
6
 49
-1.5
 49
0.25
 49
-1.5
  0
LTYPE
  2
dashed_double-dotted
 70
   64
  3
---------    -    -    ---------
 72
   65
 73
    6
 40
11
 49
6
 49
-1.5
 49
0.25
 49
-1.5
 49
0.25
 49
-1.5
  0
LTYPE
  2
double-dashed_double-dotted
 70
   64
  3
-----   ---------   -   -   ----
 72
   65
 73
    8
 40
18.5
 49
6
 49
-1.5
 49
6
 49
-1.5
 49
0.25
 49
-1.5
 49
0.25
 49
-1.5
  0
LTYPE
  2
dashed_triplicate-dotted
 70
   64
  3
-------    -    -    -    ------
 72
   65
 73
    8
 40
12.75
 49
6
 49
-1.5
 49
0.25
 49
-1.5
 49
0.25
 49
-1.5
 49
0.25
 49
-1.5
  0
LTYPE
  2
double-dashed_triplicate-dotted
 70
   64
  3
-----  ---------  -  -  -  -----
 72
   65
 73
   10
 40
20.25
 49
6
 49
-1.5
 49
6
 49
-1.5
 49
0.25
 49
-1.5
 49
0.25
 49
-1.5
 49
0.25
 49
-1.5
  0
LTYPE
  2
undefined
 70
   64
  3
--------------------------------
 72
   65
 73
    0
 40
0
  0
ENDTAB
  0
TABLE
  2
STYLE
  5
3
100
AcDbSymbolTable
 70
     1
  0
STYLE
  5
10
100
AcDbSymbolTableRecord
100
AcDbTextStyleTableRecord
  2
STANDARD
 70
     0
 40
0.0
 41
1.0
 50
0.0
 71
     0
 42
0.2
  3
txt
  4
bigfont.shx
  0
STYLE
  5
26
100
AcDbSymbolTableRecord
100
AcDbTextStyleTableRecord
  2
TATEGAKI
 70
    68
 40
0.0
 41
1.0
 50
0.0
 71
     0
 42
1.0
  3
txt
  4
bigfont.shx
  0
ENDTAB
  0
TABLE
  2
LAYER
 70
    4
  0
LAYER
  2
_0-2_____基礎
 70
   64
 62
    7
  6
CONTINUOUS
  0
LAYER
  2
_0-3_____建築
 70
   64
 62
    7
  6
CONTINUOUS
  0
LAYER
  2
_0-5_____敷地
 70
   64
 62
    7
  6
CONTINUOUS
  0
LAYER
  2
ADD_LINE
 70
   64
 62
    7
  6
CONTINUOUS
  0
ENDTAB
  0
ENDSEC
  0
SECTION
  2
BLOCKS
  0
ENDSEC
  0
SECTION
  2
ENTITIES
  0
LINE
  8
_0-5_____敷地
  6
CONTINUOUS
 62
    3
 10
47162.793999999994
 20
39300.265999999996
 11
47762.793999999994
 21
39300.265999999996
  0
LINE
  8
_0-5_____敷地
  6
CONTINUOUS
 62
    3
 10
47162.793999999994
 20
39300.265999999996
 11
47162.793999999994
 21
39600.265999999996
  0
LINE
  8
_0-5_____敷地
  6
CONTINUOUS
 62
    3
 10
47462.793999999994
 20
39300.265999999996
 11
47162.793999999994
 21
39600.265999999996
  0
LINE
  8
_0-5_____敷地
  6
CONTINUOUS
 62
    3
 10
47762.793999999994
 20
39300.265999999996
 11
47762.793999999994
 21
39600.265999999996
  0
LINE
  8
_0-5_____敷地
  6
CONTINUOUS
 62
    3
 10
47762.793999999994
 20
39600.265999999996
 11
47462.793999999994
 21
39300.265999999996
  0
LINE
  8
_0-5_____敷地
  6
CONTINUOUS
 62
    3
 10
60762.793999999994
 20
39300.265999999996
 11
61362.793999999994
 21
39300.265999999996
  0
LINE
  8
_0-5_____敷地
  6
CONTINUOUS
 62
    3
 10
60762.793999999994
 20
39300.265999999996
 11
60762.793999999994
 21
39600.265999999996
  0
LINE
  8
_0-5_____敷地
  6
CONTINUOUS
 62
    3
 10
61062.793999999994
 20
39300.265999999996
 11
60762.793999999994
 21
39600.265999999996
  0
LINE
  8
_0-5_____敷地
  6
CONTINUOUS
 62
    3
 10
61362.793999999994
 20
39300.265999999996
 11
61362.793999999994
 21
39600.265999999996
  0
LINE
  8
_0-5_____敷地
  6
CONTINUOUS
 62
    3
 10
61362.793999999994
 20
39600.265999999996
 11
61062.793999999994
 21
39300.265999999996
  0
TEXT
  8
_0-5_____敷地
 62
    1
 10
46651.983
 20
38850.054000000004
 40
333.33333333333331
 41
1
 50
0
  1
隣地境界線
  0
TEXT
  8
_0-5_____敷地
 62
    1
 10
60251.982999999993
 20
38850.054000000004
 40
333.33333333333331
 41
0.8
 50
0
  1
隣地境界線
  0
TEXT
  8
_0-5_____敷地
 62
    3
 10
46680.450000000004
 20
40911.919999999998
 40
266.66666666666663
 41
0.8
 50
0
  1
道路高
  0
TEXT
  8
_0-5_____敷地
 62
    3
 10
46680.450000000004
 20
40511.919999999998
 40
266.66666666666663
 41
0.8
 50
0
  1
　▼
  0
TEXT
  8
_0-5_____敷地
 62
    3
 10
47604.004999999997
 20
42392.707999999999
 40
266.66666666666663
 41
0.8
 50
0
  1
設計GL＝±0
  0
LINE
  8
_0-5_____敷地
  6
CONTINUOUS
 62
    3
 10
63702.440000000002
 20
42050.5
 11
47319.034999999996
 21
42050.5
  0
LINE
  8
_0-5_____敷地
  6
CONTINUOUS
 62
    3
 10
47462.793999999994
 20
51975.931000000004
 11
47462.793999999994
 21
39300.265999999996
  0
LINE
  8
_0-5_____敷地
  6
CONTINUOUS
 62
    3
 10
61062.793999999994
 20
51975.931000000004
 11
61062.793999999994
 21
39300.265999999996
  0
LINE
  8
_0-3_____建築
  6
CONTINUOUS
 62
    3
 10
60118.127000000008
 20
45680
 11
60118.127000000008
 21
47415.019999999997
  0
LINE
  8
_0-3_____建築
  6
CONTINUOUS
 62
    3
 10
55350.778000000006
 20
48697.822
 11
55350.778000000006
 21
50230.329999999994
  0
LINE
  8
_0-3_____建築
  6
CONTINUOUS
 62
    3
 10
53970.603000000003
 20
47979.087
 11
53970.565999999999
 21
42470
  0
LINE
  8
_0-3_____建築
  6
CONTINUOUS
 62
    3
 10
53050.519
 20
46151.033000000003
 11
53050.519
 21
42470
  0
LINE
  8
_0-3_____建築
  6
CONTINUOUS
 62
    3
 10
53970.623
 20
45119.708000000006
 11
52590.619000000006
 21
45119.708000000006
  0
LINE
  8
_0-3_____建築
  6
CONTINUOUS
 62
    3
 10
52590.619000000006
 20
45119.708000000006
 11
52590.619000000006
 21
46151.033000000003
  0
LINE
  8
_0-3_____建築
  6
CONTINUOUS
 62
    3
 10
53970.623
 20
48197.505000000005
 11
53970.623
 21
50203.696000000004
  0
LINE
  8
_0-3_____建築
  6
CONTINUOUS
 62
    3
 10
53970.623
 20
50203.696000000004
 11
55350.778000000006
 21
50203.696000000004
  0
LINE
  8
_0-3_____建築
  6
CONTINUOUS
 62
    3
 10
45006.705000000002
 20
40517.890999999996
 11
63195.475999999995
 21
40671.539000000004
  0
LINE
  8
_0-2_____基礎
  6
CONTINUOUS
 62
    3
 10
53112.793999999994
 20
42050
 11
53112.793999999994
 21
42450
  0
LINE
  8
_0-2_____基礎
  6
CONTINUOUS
 62
    3
 10
54022.794000000002
 20
42050
 11
53112.793999999994
 21
42050
  0
LINE
  8
_0-2_____基礎
  6
CONTINUOUS
 62
    3
 10
54022.794000000002
 20
42050
 11
54022.794000000002
 21
42450
  0
LINE
  8
_0-2_____基礎
  6
CONTINUOUS
 62
    3
 10
57514.899000000005
 20
42050
 11
54022.794000000002
 21
42050
  0
LINE
  8
_0-3_____建築
  6
CONTINUOUS
 62
    3
 10
53065.851999999999
 20
42450
 11
53065.851999999999
 21
42470
  0
LINE
  8
_0-3_____建築
  6
CONTINUOUS
 62
    3
 10
54007.794000000002
 20
42450
 11
53065.851999999999
 21
42450
  0
LINE
  8
_0-3_____建築
  6
CONTINUOUS
 62
    3
 10
54007.794000000002
 20
42470
 11
57814.899000000005
 21
42470
  0
LINE
  8
_0-3_____建築
  6
CONTINUOUS
 62
    3
 10
54007.794000000002
 20
42450
 11
54007.794000000002
 21
42470
  0
LINE
  8
_0-3_____建築
  6
CONTINUOUS
 62
    3
 10
57814.899000000005
 20
42450
 11
54007.794000000002
 21
42450
  0
LINE
  8
_0-3_____建築
  6
CONTINUOUS
 62
    2
 10
53050.519
 20
42470
 11
53050.519
 21
45119.708000000006
  0
LINE
  8
_0-3_____建築
  6
CONTINUOUS
 62
    2
 10
53970.623
 20
42470
 11
53050.519
 21
42470
  0
LINE
  8
_0-3_____建築
  6
CONTINUOUS
 62
    2
 10
54007.794000000002
 20
42470
 11
53970.623
 21
42470
  0
LINE
  8
_0-3_____建築
  6
CONTINUOUS
 62
    2
 10
53970.594000000005
 20
46582.366000000002
 11
53970.603000000003
 21
47979.087
  0
LINE
  8
_0-3_____建築
  6
CONTINUOUS
 62
    2
 10
60118.127000000008
 20
47415.019999999997
 11
60118.127000000008
 21
45680
  0
LINE
  8
_0-3_____建築
  6
CONTINUOUS
 62
    2
 10
53970.654000000002
 20
46171
 11
53970.642
 21
47979.099999999999
  0
LINE
  8
_0-3_____建築
  6
CONTINUOUS
 62
    2
 10
53970.623
 20
45119.708000000006
 11
53970.654000000002
 21
46151.033000000003
  0
LINE
  8
_0-3_____建築
  6
CONTINUOUS
 62
    2
 10
53970.623
 20
42470
 11
53970.623
 21
45119.708000000006
  0
LINE
  8
_0-3_____建築
  6
CONTINUOUS
 62
    2
 10
55350.778000000006
 20
50231.200000000004
 11
55350.778000000006
 21
48697.822
  0
LINE
  8
_0-3_____建築
  6
CONTINUOUS
 62
    2
 10
53970.623
 20
47979.093999999997
 11
53970.597999999998
 21
46582.366000000002
  0
LINE
  8
_0-3_____建築
  6
CONTINUOUS
 62
    2
 10
53970.597999999998
 20
46541.993000000002
 11
53970.595999999998
 21
46459.491999999998
  0
LINE
  8
_0-3_____建築
  6
CONTINUOUS
 62
    2
 10
53970.595999999998
 20
46429.493000000002
 11
53970.594000000005
 21
46361.991999999998
  0
LINE
  8
_0-3_____建築
  6
CONTINUOUS
 62
    2
 10
53970.594000000005
 20
46331.993000000002
 11
53970.592999999993
 21
46264.491999999998
  0
LINE
  8
_0-3_____建築
  6
CONTINUOUS
 62
    2
 10
53970.591999999997
 20
46234.492999999995
 11
53970.591
 21
46171
  0
LINE
  8
_0-3_____建築
  6
CONTINUOUS
 62
    2
 10
53970.623
 20
46171
 11
53970.623
 21
47979.093999999997
  0
LINE
  8
_0-3_____建築
  6
CONTINUOUS
 62
    2
 10
52590.619000000006
 20
45119.708000000006
 11
52590.619000000006
 21
46151.033000000003
  0
LINE
  8
_0-3_____建築
  6
CONTINUOUS
 62
    2
 10
52590.619000000006
 20
45119.708000000006
 11
53970.654000000002
 21
45119.708000000006
  0
LINE
  8
_0-3_____建築
  6
CONTINUOUS
 62
    2
 10
53970.654000000002
 20
45119.708000000006
 11
53970.654000000002
 21
46151.033000000003
  0
LINE
  8
_0-3_____建築
  6
CONTINUOUS
 62
    2
 10
53970.623
 20
48214.767
 11
53970.623
 21
50203.696000000004
  0
LINE
  8
_0-3_____建築
  6
CONTINUOUS
 62
    2
 10
54120.623
 20
50203.696000000004
 11
53970.623
 21
50203.696000000004
  0
LINE
  8
_0-3_____建築
  6
CONTINUOUS
 62
    2
 10
55350.778000000006
 20
50203.696000000004
 11
54120.623
 21
50203.696000000004
  0
LINE
  8
_0-3_____建築
  6
CONTINUOUS
 62
    3
 10
52575.619000000006
 20
46171
 11
53970.659999999996
 21
46171
  0
LINE
  8
_0-3_____建築
  6
CONTINUOUS
 62
    3
 10
52575.619000000006
 20
46151.033000000003
 11
52575.619000000006
 21
46171
  0
LINE
  8
_0-3_____建築
  6
CONTINUOUS
 62
    3
 10
53970.659999999996
 20
46151.033000000003
 11
52575.619000000006
 21
46151.033000000003
  0
LINE
  8
_0-3_____建築
  6
CONTINUOUS
 62
    3
 10
53970.659999999996
 20
46151.033000000003
 11
53970.659999999996
 21
46171
  0
LINE
  8
_0-3_____建築
  6
CONTINUOUS
 62
    3
 10
60316.794000000002
 20
45338.429000000004
 11
60316.794000000002
 21
45385.595000000001
  0
LINE
  8
_0-3_____建築
  6
CONTINUOUS
 62
    3
 10
60119.465000000004
 20
45503.991999999998
 11
60316.794000000002
 21
45385.595000000001
  0
LINE
  8
_0-3_____建築
  6
CONTINUOUS
 62
    3
 10
60316.794000000002
 20
45338.429000000004
 11
60290.794000000009
 21
45354.029000000002
  0
LINE
  8
_0-3_____建築
  6
CONTINUOUS
 62
    3
 10
60290.794000000009
 20
45141.790000000001
 11
60290.794000000009
 21
45354.029000000002
  0
LINE
  8
_0-3_____建築
  6
CONTINUOUS
 62
    3
 10
60290.794000000009
 20
45141.790000000001
 11
60119.465000000004
 21
45244.587999999996
  0
LINE
  8
_0-3_____建築
  6
CONTINUOUS
 62
    3
 10
55350.778000000006
 20
48654.971999999994
 11
55350.778000000006
 21
48697.822
  0
LINE
  8
_0-3_____建築
  6
CONTINUOUS
 62
    3
 10
53612.210000000006
 20
48089.323000000004
 11
55350.778000000006
 21
48697.822
  0
LINE
  8
_0-3_____建築
  6
CONTINUOUS
 62
    3
 10
55350.778000000006
 20
48654.971999999994
 11
53612.210000000006
 21
48046.473000000005
  0
LINE
  8
_0-3_____建築
  6
CONTINUOUS
 62
    3
 10
53612.210000000006
 20
48046.473000000005
 11
53612.210000000006
 21
48089.323000000004
  0
LINE
  8
_0-3_____建築
  6
CONTINUOUS
 62
    3
 10
55350.778000000006
 20
48462.148000000001
 11
55350.778000000006
 21
48654.971999999994
  0
LINE
  8
_0-3_____建築
  6
CONTINUOUS
 62
    3
 10
55350.778000000006
 20
48462.148000000001
 11
53641.209999999999
 21
47863.798999999999
  0
LINE
  8
_0-3_____建築
  6
CONTINUOUS
 62
    3
 10
53641.209999999999
 20
47863.798999999999
 11
53641.209999999999
 21
48056.623
  0
LINE
  8
_0-3_____建築
  6
CONTINUOUS
 62
    3
 10
60260.784
 20
47330.749000000003
 11
60260.784
 21
47523.748999999996
  0
LINE
  8
_0-3_____建築
  6
CONTINUOUS
 62
    3
 10
55123.167999999998
 20
50558.654000000002
 11
55123.167999999998
 21
50365.654000000002
  0
LINE
  8
_0-3_____建築
  6
CONTINUOUS
 62
    3
 10
55123.167999999998
 20
50558.654000000002
 11
60260.784
 21
47523.748999999996
  0
LINE
  8
_0-3_____建築
  6
CONTINUOUS
 62
    3
 10
60260.784
 20
47330.749000000003
 11
55123.167999999998
 21
50365.654000000002
  0
LINE
  8
_0-3_____建築
  6
CONTINUOUS
 62
    3
 10
53811.127
 20
50557.75
 11
55123.167999999998
 21
50557.75
  0
LINE
  8
_0-3_____建築
  6
CONTINUOUS
 62
    3
 10
55123.167999999998
 20
50365.654000000002
 11
55123.167999999998
 21
50364.75
  0
LINE
  8
_0-3_____建築
  6
CONTINUOUS
 62
    3
 10
55123.167999999998
 20
50364.75
 11
53811.127
 21
50364.75
  0
LINE
  8
_0-3_____建築
  6
CONTINUOUS
 62
    3
 10
53811.127
 20
50364.75
 11
53811.127
 21
50557.75
  0
LINE
  8
_0-3_____建築
  6
CONTINUOUS
 62
    3
 10
53811.127
 20
50364.75
 11
53811.127
 21
48158.944000000003
  0
LINE
  8
_0-3_____建築
  6
CONTINUOUS
 62
    3
 10
53811.127
 20
47923.270000000004
 11
53811.127
 21
47860.175999999999
  0
LINE
  8
_0-3_____建築
  6
CONTINUOUS
 62
    3
 10
53811.127
 20
47860.175999999999
 11
53970.601999999999
 21
47860.175999999999
  0
LINE
  8
_0-3_____建築
  6
CONTINUOUS
 62
    3
 10
55350.778000000006
 20
50230.329999999994
 11
55123.167999999998
 21
50364.75
  0
LINE
  8
_0-3_____建築
  6
CONTINUOUS
 62
    2
 10
54477.793999999994
 20
48809.122000000003
 11
54477.793999999994
 21
48392.277000000002
  0
LINE
  8
_0-3_____建築
  6
CONTINUOUS
 62
    2
 10
54627.793999999994
 20
48809.122000000003
 11
54477.793999999994
 21
48809.122000000003
  0
LINE
  8
_0-3_____建築
  6
CONTINUOUS
 62
    2
 10
54627.793999999994
 20
48809.122000000003
 11
54627.793999999994
 21
48444.777000000002
  0
LINE
  8
_0-3_____建築
  6
CONTINUOUS
 62
    3
 10
55916.265999999996
 20
44631.900000000001
 11
55916.265999999996
 21
43548.910000000003
  0
LINE
  8
_0-3_____建築
  6
CONTINUOUS
 62
    3
 10
55866.265999999996
 20
43598.910000000003
 11
55866.265999999996
 21
44581.900000000001
  0
LINE
  8
_0-3_____建築
  6
CONTINUOUS
 62
    3
 10
55866.265999999996
 20
44581.900000000001
 11
55144.919000000002
 21
44581.900000000001
  0
LINE
  8
_0-3_____建築
  6
CONTINUOUS
 62
    3
 10
55144.919000000002
 20
44581.900000000001
 11
55144.919000000002
 21
43598.910000000003
  0
LINE
  8
_0-3_____建築
  6
CONTINUOUS
 62
    3
 10
55144.919000000002
 20
43598.910000000003
 11
55866.265999999996
 21
43598.910000000003
  0
LINE
  8
_0-3_____建築
  6
CONTINUOUS
 62
    3
 10
56637.612999999998
 20
43598.910000000003
 11
56637.612999999998
 21
44581.900000000001
  0
LINE
  8
_0-3_____建築
  6
CONTINUOUS
 62
    3
 10
56637.612999999998
 20
44581.900000000001
 11
55916.265999999996
 21
44581.900000000001
  0
LINE
  8
_0-3_____建築
  6
CONTINUOUS
 62
    3
 10
55916.265999999996
 20
43598.910000000003
 11
56637.612999999998
 21
43598.910000000003
  0
LINE
  8
_0-3_____建築
  6
CONTINUOUS
 62
    3
 10
56737.612999999998
 20
44681.900000000001
 11
56737.612999999998
 21
43498.910000000003
  0
LINE
  8
_0-3_____建築
  6
CONTINUOUS
 62
    3
 10
56737.612999999998
 20
43498.910000000003
 11
55044.919000000002
 21
43498.910000000003
  0
LINE
  8
_0-3_____建築
  6
CONTINUOUS
 62
    3
 10
55044.919000000002
 20
43498.910000000003
 11
55044.919000000002
 21
44681.900000000001
  0
LINE
  8
_0-3_____建築
  6
CONTINUOUS
 62
    3
 10
56687.612999999998
 20
43548.910000000003
 11
56687.612999999998
 21
44631.900000000001
  0
LINE
  8
_0-3_____建築
  6
CONTINUOUS
 62
    3
 10
56687.612999999998
 20
44631.900000000001
 11
55094.919000000002
 21
44631.900000000001
  0
LINE
  8
_0-3_____建築
  6
CONTINUOUS
 62
    3
 10
55094.919000000002
 20
44631.900000000001
 11
55094.919000000002
 21
43548.910000000003
  0
LINE
  8
_0-3_____建築
  6
CONTINUOUS
 62
    3
 10
55094.919000000002
 20
43548.910000000003
 11
56687.612999999998
 21
43548.910000000003
  0
LINE
  8
_0-3_____建築
  6
CONTINUOUS
 62
    3
 10
55044.919000000002
 20
44681.900000000001
 11
55044.919000000002
 21
44765.233999999997
  0
LINE
  8
_0-3_____建築
  6
CONTINUOUS
 62
    3
 10
55044.919000000002
 20
44765.233999999997
 11
55044.919000000002
 21
44898.567000000003
  0
LINE
  8
_0-3_____建築
  6
CONTINUOUS
 62
    3
 10
55044.919000000002
 20
44898.567000000003
 11
55044.919000000002
 21
44931.900000000001
  0
LINE
  8
_0-3_____建築
  6
CONTINUOUS
 62
    3
 10
56737.612999999998
 20
44681.900000000001
 11
56737.612999999998
 21
44765.233999999997
  0
LINE
  8
_0-3_____建築
  6
CONTINUOUS
 62
    3
 10
56737.612999999998
 20
44765.233999999997
 11
56737.612999999998
 21
44898.567000000003
  0
LINE
  8
_0-3_____建築
  6
CONTINUOUS
 62
    3
 10
56737.612999999998
 20
44898.567000000003
 11
56737.612999999998
 21
44931.900000000001
  0
LINE
  8
_0-3_____建築
  6
CONTINUOUS
 62
    3
 10
55044.919000000002
 20
44681.900000000001
 11
56737.612999999998
 21
44681.900000000001
  0
LINE
  8
_0-3_____建築
  6
CONTINUOUS
 62
    3
 10
55044.919000000002
 20
44765.233999999997
 11
56737.612999999998
 21
44765.233999999997
  0
LINE
  8
_0-3_____建築
  6
CONTINUOUS
 62
    3
 10
55044.919000000002
 20
44898.567000000003
 11
56737.612999999998
 21
44898.567000000003
  0
LINE
  8
_0-3_____建築
  6
CONTINUOUS
 62
    3
 10
55044.919000000002
 20
44931.900000000001
 11
56737.612999999998
 21
44931.900000000001
  0
LINE
  8
_0-3_____建築
  6
CONTINUOUS
 62
    3
 10
55919.245999999999
 20
47476.131999999998
 11
55919.245999999999
 21
46595.362999999998
  0
LINE
  8
_0-3_____建築
  6
CONTINUOUS
 62
    3
 10
55869.245999999999
 20
46645.362999999998
 11
55869.245999999999
 21
47426.131999999998
  0
LINE
  8
_0-3_____建築
  6
CONTINUOUS
 62
    3
 10
55869.245999999999
 20
47426.131999999998
 11
55165.140999999996
 21
47426.131999999998
  0
LINE
  8
_0-3_____建築
  6
CONTINUOUS
 62
    3
 10
55165.140999999996
 20
47426.131999999998
 11
55165.140999999996
 21
46645.362999999998
  0
LINE
  8
_0-3_____建築
  6
CONTINUOUS
 62
    3
 10
55165.140999999996
 20
46645.362999999998
 11
55869.245999999999
 21
46645.362999999998
  0
LINE
  8
_0-3_____建築
  6
CONTINUOUS
 62
    3
 10
56623.350000000006
 20
46645.362999999998
 11
56623.350000000006
 21
47426.131999999998
  0
LINE
  8
_0-3_____建築
  6
CONTINUOUS
 62
    3
 10
56623.350000000006
 20
47426.131999999998
 11
55919.245999999999
 21
47426.131999999998
  0
LINE
  8
_0-3_____建築
  6
CONTINUOUS
 62
    3
 10
55919.245999999999
 20
46645.362999999998
 11
56623.350000000006
 21
46645.362999999998
  0
LINE
  8
_0-3_____建築
  6
CONTINUOUS
 62
    3
 10
56723.350000000006
 20
47526.131999999998
 11
56723.350000000006
 21
46545.362999999998
  0
LINE
  8
_0-3_____建築
  6
CONTINUOUS
 62
    3
 10
56723.350000000006
 20
46545.362999999998
 11
55065.140999999996
 21
46545.362999999998
  0
LINE
  8
_0-3_____建築
  6
CONTINUOUS
 62
    3
 10
55065.140999999996
 20
46545.362999999998
 11
55065.140999999996
 21
47526.131999999998
  0
LINE
  8
_0-3_____建築
  6
CONTINUOUS
 62
    3
 10
55065.140999999996
 20
47526.131999999998
 11
56723.350000000006
 21
47526.131999999998
  0
LINE
  8
_0-3_____建築
  6
CONTINUOUS
 62
    3
 10
56673.350000000006
 20
46595.362999999998
 11
56673.350000000006
 21
47476.131999999998
  0
LINE
  8
_0-3_____建築
  6
CONTINUOUS
 62
    3
 10
56673.350000000006
 20
47476.131999999998
 11
55115.140999999996
 21
47476.131999999998
  0
LINE
  8
_0-3_____建築
  6
CONTINUOUS
 62
    3
 10
55115.140999999996
 20
47476.131999999998
 11
55115.140999999996
 21
46595.362999999998
  0
LINE
  8
_0-3_____建築
  6
CONTINUOUS
 62
    3
 10
55115.140999999996
 20
46595.362999999998
 11
56673.350000000006
 21
46595.362999999998
  0
LINE
  8
_0-3_____建築
  6
CONTINUOUS
 62
    3
 10
53945.623
 20
44681.900000000001
 11
53920.623
 21
44681.900000000001
  0
LINE
  8
_0-3_____建築
  6
CONTINUOUS
 62
    3
 10
53970.623
 20
44681.900000000001
 11
53945.623
 21
44681.900000000001
  0
LINE
  8
_0-3_____建築
  6
CONTINUOUS
 62
    3
 10
53920.623
 20
44681.900000000001
 11
53890.623000000007
 21
44765.233999999997
  0
LINE
  8
_0-3_____建築
  6
CONTINUOUS
 62
    3
 10
53890.623000000007
 20
44765.233999999997
 11
53890.623000000007
 21
44898.567000000003
  0
LINE
  8
_0-3_____建築
  6
CONTINUOUS
 62
    3
 10
53890.623000000007
 20
44898.567000000003
 11
53970.623
 21
44931.900000000001
  0
LINE
  8
_0-3_____建築
  6
CONTINUOUS
 62
    3
 10
53945.623
 20
44681.900000000001
 11
53945.623
 21
42588.917999999998
  0
LINE
  8
_0-3_____建築
  6
CONTINUOUS
 62
    3
 10
53970.623
 20
42588.917999999998
 11
53945.623
 21
42588.917999999998
  0
LINE
  8
_0-3_____建築
  6
CONTINUOUS
 62
    3
 10
53945.623
 20
47627.243000000002
 11
53945.623
 21
46582.366000000002
  0
LINE
  8
_0-3_____建築
  6
CONTINUOUS
 62
    3
 10
53945.623
 20
46541.991999999998
 11
53945.623
 21
46459.491999999998
  0
LINE
  8
_0-3_____建築
  6
CONTINUOUS
 62
    3
 10
53945.623
 20
46429.491999999998
 11
53945.623
 21
46361.991999999998
  0
LINE
  8
_0-3_____建築
  6
CONTINUOUS
 62
    3
 10
53945.623
 20
46331.992000000006
 11
53945.623
 21
46264.491999999998
  0
LINE
  8
_0-3_____建築
  6
CONTINUOUS
 62
    3
 10
53945.623
 20
46234.491999999998
 11
53945.623
 21
46171
  0
LINE
  8
_0-3_____建築
  6
CONTINUOUS
 62
    3
 10
53970.601000000002
 20
47627.243000000002
 11
53945.623
 21
47627.243000000002
  0
LINE
  8
_0-3_____建築
  6
CONTINUOUS
 62
    3
 10
53025.519
 20
44681.900000000001
 11
53000.519
 21
44681.900000000001
  0
LINE
  8
_0-3_____建築
  6
CONTINUOUS
 62
    3
 10
53050.519
 20
44681.900000000001
 11
53025.519
 21
44681.900000000001
  0
LINE
  8
_0-3_____建築
  6
CONTINUOUS
 62
    3
 10
53000.519
 20
44681.900000000001
 11
52970.519
 21
44765.233999999997
  0
LINE
  8
_0-3_____建築
  6
CONTINUOUS
 62
    3
 10
52970.519
 20
44765.233999999997
 11
52970.519
 21
44898.567000000003
  0
LINE
  8
_0-3_____建築
  6
CONTINUOUS
 62
    3
 10
52970.519
 20
44898.567000000003
 11
53050.519
 21
44931.900000000001
  0
LINE
  8
_0-3_____建築
  6
CONTINUOUS
 62
    3
 10
53025.519
 20
44681.900000000001
 11
53025.519
 21
42681.900000000001
  0
LINE
  8
_0-3_____建築
  6
CONTINUOUS
 62
    3
 10
53050.519
 20
42681.900000000001
 11
53025.519
 21
42681.900000000001
  0
LINE
  8
_0-3_____建築
  6
CONTINUOUS
 62
    3
 10
60138.127
 20
43802.240999999995
 11
60138.127
 21
44378.57
  0
LINE
  8
_0-3_____建築
  6
CONTINUOUS
 62
    3
 10
60138.127
 20
43802.240999999995
 11
60119.465000000004
 21
43802.240999999995
  0
LINE
  8
_0-3_____建築
  6
CONTINUOUS
 62
    3
 10
60138.127
 20
44378.57
 11
60119.465000000004
 21
44378.57
  0
LINE
  8
_0-3_____建築
  6
CONTINUOUS
 62
    3
 10
53950.622999999992
 20
48773.832999999999
 11
53950.622999999992
 21
48207.767
  0
LINE
  8
_0-3_____建築
  6
CONTINUOUS
 62
    3
 10
53950.622999999992
 20
48773.832999999999
 11
53970.623
 21
48773.832999999999
  0
LINE
  8
_0-3_____建築
  6
CONTINUOUS
 62
    3
 10
55330.777999999998
 20
49380.495000000003
 11
55330.777999999998
 21
49006.387000000002
  0
LINE
  8
_0-3_____建築
  6
CONTINUOUS
 62
    3
 10
55330.777999999998
 20
49380.495000000003
 11
55350.778000000006
 21
49380.495000000003
  0
LINE
  8
_0-3_____建築
  6
CONTINUOUS
 62
    3
 10
55330.777999999998
 20
49006.387000000002
 11
55350.778000000006
 21
49006.387000000002
  0
LINE
  8
_0-3_____建築
  6
CONTINUOUS
 62
    3
 10
60138.127
 20
44378.57
 11
60138.127
 21
44479.68
  0
LINE
  8
_0-3_____建築
  6
CONTINUOUS
 62
    3
 10
60138.127
 20
44479.68
 11
60119.465000000004
 21
44479.68
  0
LINE
  8
_0-3_____建築
  6
CONTINUOUS
 62
    3
 10
60138.127
 20
46242.031999999999
 11
60138.127
 21
47222.802000000003
  0
LINE
  8
_0-3_____建築
  6
CONTINUOUS
 62
    3
 10
60138.127
 20
46242.031999999999
 11
60118.127000000008
 21
46242.031999999999
  0
LINE
  8
_0-3_____建築
  6
CONTINUOUS
 62
    3
 10
60138.127
 20
47222.802000000003
 11
60118.127000000008
 21
47222.802000000003
  0
LINE
  8
_0-3_____建築
  6
CONTINUOUS
 62
    3
 10
59317.433000000005
 20
46240.921999999999
 11
59317.433000000005
 21
47426.131999999998
  0
LINE
  8
_0-3_____建築
  6
CONTINUOUS
 62
    3
 10
59317.433000000005
 20
47426.131999999998
 11
58728.773000000001
 21
47426.131999999998
  0
LINE
  8
_0-3_____建築
  6
CONTINUOUS
 62
    3
 10
58728.773000000001
 20
47426.131999999998
 11
58728.773000000001
 21
46240.921999999999
  0
LINE
  8
_0-3_____建築
  6
CONTINUOUS
 62
    3
 10
58728.773000000001
 20
46240.921999999999
 11
59317.433000000005
 21
46240.921999999999
  0
LINE
  8
_0-3_____建築
  6
CONTINUOUS
 62
    3
 10
59417.433000000005
 20
46140.921999999999
 11
58628.773000000001
 21
46140.921999999999
  0
LINE
  8
_0-3_____建築
  6
CONTINUOUS
 62
    3
 10
58628.773000000001
 20
46140.921999999999
 11
58628.773000000001
 21
47526.131999999998
  0
LINE
  8
_0-3_____建築
  6
CONTINUOUS
 62
    3
 10
58628.773000000001
 20
47526.131999999998
 11
59417.433000000005
 21
47526.131999999998
  0
LINE
  8
_0-3_____建築
  6
CONTINUOUS
 62
    3
 10
59417.433000000005
 20
47526.131999999998
 11
59417.433000000005
 21
46140.921999999999
  0
LINE
  8
_0-3_____建築
  6
CONTINUOUS
 62
    3
 10
59367.433000000005
 20
46190.921999999999
 11
59367.433000000005
 21
47476.131999999998
  0
LINE
  8
_0-3_____建築
  6
CONTINUOUS
 62
    3
 10
59367.433000000005
 20
47476.131999999998
 11
58678.773000000001
 21
47476.131999999998
  0
LINE
  8
_0-3_____建築
  6
CONTINUOUS
 62
    3
 10
58678.773000000001
 20
47476.131999999998
 11
58678.773000000001
 21
46190.921999999999
  0
LINE
  8
_0-3_____建築
  6
CONTINUOUS
 62
    3
 10
58678.773000000001
 20
46190.921999999999
 11
59367.433000000005
 21
46190.921999999999
  0
LINE
  8
_0-3_____建築
  6
CONTINUOUS
 62
    3
 10
53702.622999999992
 20
46171
 11
53702.622999999992
 21
46234.491999999998
  0
LINE
  8
_0-3_____建築
  6
CONTINUOUS
 62
    3
 10
53702.622999999992
 20
46264.491999999998
 11
53702.622999999992
 21
46331.992000000006
  0
LINE
  8
_0-3_____建築
  6
CONTINUOUS
 62
    3
 10
53702.622999999992
 20
46361.991999999998
 11
53702.622999999992
 21
46429.491999999998
  0
LINE
  8
_0-3_____建築
  6
CONTINUOUS
 62
    3
 10
53702.622999999992
 20
46459.491999999998
 11
53702.622999999992
 21
46532.991999999998
  0
LINE
  8
_0-3_____建築
  6
CONTINUOUS
 62
    3
 10
53357.208000000006
 20
46532.991999999998
 11
53336.139999999999
 21
46532.991999999998
  0
LINE
  8
_0-3_____建築
  6
CONTINUOUS
 62
    3
 10
53357.208000000006
 20
46171
 11
53357.208000000006
 21
46234.491999999998
  0
LINE
  8
_0-3_____建築
  6
CONTINUOUS
 62
    3
 10
53357.208000000006
 20
46264.491999999998
 11
53357.208000000006
 21
46331.992000000006
  0
LINE
  8
_0-3_____建築
  6
CONTINUOUS
 62
    3
 10
53357.208000000006
 20
46361.991999999998
 11
53357.208000000006
 21
46429.491999999998
  0
LINE
  8
_0-3_____建築
  6
CONTINUOUS
 62
    3
 10
53357.208000000006
 20
46459.491999999998
 11
53357.208000000006
 21
46532.991999999998
  0
LINE
  8
_0-3_____建築
  6
CONTINUOUS
 62
    3
 10
52975.793999999994
 20
46532.991999999998
 11
52939.794000000009
 21
46532.991999999998
  0
LINE
  8
_0-3_____建築
  6
CONTINUOUS
 62
    3
 10
52975.793999999994
 20
46171
 11
52975.793999999994
 21
46234.491999999998
  0
LINE
  8
_0-3_____建築
  6
CONTINUOUS
 62
    3
 10
52975.793999999994
 20
46264.491999999998
 11
52975.793999999994
 21
46331.992000000006
  0
LINE
  8
_0-3_____建築
  6
CONTINUOUS
 62
    3
 10
52975.793999999994
 20
46361.991999999998
 11
52975.793999999994
 21
46429.491999999998
  0
LINE
  8
_0-3_____建築
  6
CONTINUOUS
 62
    3
 10
52975.793999999994
 20
46459.491999999998
 11
52975.793999999994
 21
46532.991999999998
  0
LINE
  8
_0-3_____建築
  6
CONTINUOUS
 62
    3
 10
52939.794000000009
 20
46171
 11
52939.794000000009
 21
46234.491999999998
  0
LINE
  8
_0-3_____建築
  6
CONTINUOUS
 62
    3
 10
52939.794000000009
 20
46264.491999999998
 11
52939.794000000009
 21
46331.992000000006
  0
LINE
  8
_0-3_____建築
  6
CONTINUOUS
 62
    3
 10
52939.794000000009
 20
46361.991999999998
 11
52939.794000000009
 21
46429.491999999998
  0
LINE
  8
_0-3_____建築
  6
CONTINUOUS
 62
    3
 10
52939.794000000009
 20
46459.491999999998
 11
52939.794000000009
 21
46532.991999999998
  0
LINE
  8
_0-3_____建築
  6
CONTINUOUS
 62
    3
 10
52725.793999999994
 20
46532.991999999998
 11
52689.794000000009
 21
46532.991999999998
  0
LINE
  8
_0-3_____建築
  6
CONTINUOUS
 62
    3
 10
52689.794000000009
 20
46171
 11
52689.794000000009
 21
46234.491999999998
  0
LINE
  8
_0-3_____建築
  6
CONTINUOUS
 62
    3
 10
52689.794000000009
 20
46264.491999999998
 11
52689.794000000009
 21
46331.992000000006
  0
LINE
  8
_0-3_____建築
  6
CONTINUOUS
 62
    3
 10
52689.794000000009
 20
46361.991999999998
 11
52689.794000000009
 21
46429.491999999998
  0
LINE
  8
_0-3_____建築
  6
CONTINUOUS
 62
    3
 10
52689.794000000009
 20
46459.491999999998
 11
52689.794000000009
 21
46532.991999999998
  0
LINE
  8
_0-3_____建築
  6
CONTINUOUS
 62
    3
 10
52725.793999999994
 20
46171
 11
52725.793999999994
 21
46234.491999999998
  0
LINE
  8
_0-3_____建築
  6
CONTINUOUS
 62
    3
 10
52725.793999999994
 20
46264.491999999998
 11
52725.793999999994
 21
46331.992000000006
  0
LINE
  8
_0-3_____建築
  6
CONTINUOUS
 62
    3
 10
52725.793999999994
 20
46361.991999999998
 11
52725.793999999994
 21
46429.491999999998
  0
LINE
  8
_0-3_____建築
  6
CONTINUOUS
 62
    3
 10
52725.793999999994
 20
46459.491999999998
 11
52725.793999999994
 21
46532.991999999998
  0
LINE
  8
_0-3_____建築
  6
CONTINUOUS
 62
    3
 10
52738.793999999994
 20
46541.991999999998
 11
52678.794000000002
 21
46541.991999999998
  0
LINE
  8
_0-3_____建築
  6
CONTINUOUS
 62
    3
 10
52678.794000000002
 20
46541.991999999998
 11
52678.794000000002
 21
46574.403999999995
  0
LINE
  8
_0-3_____建築
  6
CONTINUOUS
 62
    3
 10
52678.794000000002
 20
46574.403999999995
 11
52678.794000000002
 21
46574.754000000001
  0
LINE
  8
_0-3_____建築
  6
CONTINUOUS
 62
    3
 10
52678.794000000002
 20
46574.754000000001
 11
52678.916000000005
 21
46575.442999999999
  0
LINE
  8
_0-3_____建築
  6
CONTINUOUS
 62
    3
 10
52678.916000000005
 20
46575.442999999999
 11
52679.155000000006
 21
46576.101000000002
  0
LINE
  8
_0-3_____建築
  6
CONTINUOUS
 62
    3
 10
52679.155000000006
 20
46576.101000000002
 11
52679.504999999997
 21
46576.707000000002
  0
LINE
  8
_0-3_____建築
  6
CONTINUOUS
 62
    3
 10
52679.504999999997
 20
46576.707000000002
 11
52679.954999999994
 21
46577.243000000002
  0
LINE
  8
_0-3_____建築
  6
CONTINUOUS
 62
    3
 10
52679.954999999994
 20
46577.243000000002
 11
52680.491000000009
 21
46577.692999999999
  0
LINE
  8
_0-3_____建築
  6
CONTINUOUS
 62
    3
 10
52680.491000000009
 20
46577.692999999999
 11
52681.097000000002
 21
46578.043000000005
  0
LINE
  8
_0-3_____建築
  6
CONTINUOUS
 62
    3
 10
52681.097000000002
 20
46578.043000000005
 11
52681.710999999996
 21
46578.255000000005
  0
LINE
  8
_0-3_____建築
  6
CONTINUOUS
 62
    3
 10
52681.710999999996
 20
46578.255000000005
 11
52690.133000000002
 21
46580.624000000003
  0
LINE
  8
_0-3_____建築
  6
CONTINUOUS
 62
    3
 10
52690.133000000002
 20
46580.624000000003
 11
52707.542999999998
 21
46582.366000000002
  0
LINE
  8
_0-3_____建築
  6
CONTINUOUS
 62
    3
 10
52707.542999999998
 20
46582.366000000002
 11
52724.991999999998
 21
46581.058000000005
  0
LINE
  8
_0-3_____建築
  6
CONTINUOUS
 62
    3
 10
52724.991999999998
 20
46581.058000000005
 11
52735.877000000008
 21
46578.255000000005
  0
LINE
  8
_0-3_____建築
  6
CONTINUOUS
 62
    3
 10
52735.877000000008
 20
46578.255000000005
 11
52736.213999999993
 21
46578.160000000003
  0
LINE
  8
_0-3_____建築
  6
CONTINUOUS
 62
    3
 10
52736.213999999993
 20
46578.160000000003
 11
52736.844999999994
 21
46577.856
  0
LINE
  8
_0-3_____建築
  6
CONTINUOUS
 62
    3
 10
52736.844999999994
 20
46577.856
 11
52737.413
 21
46577.447999999997
  0
LINE
  8
_0-3_____建築
  6
CONTINUOUS
 62
    3
 10
52737.413
 20
46577.447999999997
 11
52737.901999999995
 21
46576.947
  0
LINE
  8
_0-3_____建築
  6
CONTINUOUS
 62
    3
 10
52737.901999999995
 20
46576.947
 11
52738.296000000002
 21
46576.368000000002
  0
LINE
  8
_0-3_____建築
  6
CONTINUOUS
 62
    3
 10
52738.296000000002
 20
46576.368000000002
 11
52738.584000000003
 21
46575.729999999996
  0
LINE
  8
_0-3_____建築
  6
CONTINUOUS
 62
    3
 10
52738.584000000003
 20
46575.729999999996
 11
52738.756999999998
 21
46575.051999999996
  0
LINE
  8
_0-3_____建築
  6
CONTINUOUS
 62
    3
 10
52738.756999999998
 20
46575.051999999996
 11
52738.793999999994
 21
46574.403999999995
  0
LINE
  8
_0-3_____建築
  6
CONTINUOUS
 62
    3
 10
52738.793999999994
 20
46574.403999999995
 11
52738.793999999994
 21
46541.991999999998
  0
LINE
  8
_0-3_____建築
  6
CONTINUOUS
 62
    3
 10
52755.794000000002
 20
46234.491999999998
 11
52725.793999999994
 21
46234.491999999998
  0
LINE
  8
_0-3_____建築
  6
CONTINUOUS
 62
    3
 10
52725.793999999994
 20
46234.491999999998
 11
52725.793999999994
 21
46264.491999999998
  0
LINE
  8
_0-3_____建築
  6
CONTINUOUS
 62
    3
 10
52725.793999999994
 20
46264.491999999998
 11
52755.794000000002
 21
46264.491999999998
  0
LINE
  8
_0-3_____建築
  6
CONTINUOUS
 62
    3
 10
52755.794000000002
 20
46264.491999999998
 11
52755.794000000002
 21
46234.491999999998
  0
LINE
  8
_0-3_____建築
  6
CONTINUOUS
 62
    3
 10
52755.794000000002
 20
46331.992000000006
 11
52725.793999999994
 21
46331.992000000006
  0
LINE
  8
_0-3_____建築
  6
CONTINUOUS
 62
    3
 10
52725.793999999994
 20
46331.992000000006
 11
52725.793999999994
 21
46361.991999999998
  0
LINE
  8
_0-3_____建築
  6
CONTINUOUS
 62
    3
 10
52725.793999999994
 20
46361.991999999998
 11
52755.794000000002
 21
46361.991999999998
  0
LINE
  8
_0-3_____建築
  6
CONTINUOUS
 62
    3
 10
52755.794000000002
 20
46361.991999999998
 11
52755.794000000002
 21
46331.992000000006
  0
LINE
  8
_0-3_____建築
  6
CONTINUOUS
 62
    3
 10
52755.794000000002
 20
46429.491999999998
 11
52725.793999999994
 21
46429.491999999998
  0
LINE
  8
_0-3_____建築
  6
CONTINUOUS
 62
    3
 10
52725.793999999994
 20
46429.491999999998
 11
52725.793999999994
 21
46459.491999999998
  0
LINE
  8
_0-3_____建築
  6
CONTINUOUS
 62
    3
 10
52725.793999999994
 20
46459.491999999998
 11
52755.794000000002
 21
46459.491999999998
  0
LINE
  8
_0-3_____建築
  6
CONTINUOUS
 62
    3
 10
52755.794000000002
 20
46459.491999999998
 11
52755.794000000002
 21
46429.491999999998
  0
LINE
  8
_0-3_____建築
  6
CONTINUOUS
 62
    3
 10
53738.660000000003
 20
46532.991999999998
 11
53702.660000000003
 21
46532.991999999998
  0
LINE
  8
_0-3_____建築
  6
CONTINUOUS
 62
    3
 10
53738.660000000003
 20
46171
 11
53738.660000000003
 21
46532.991999999998
  0
LINE
  8
_0-3_____建築
  6
CONTINUOUS
 62
    3
 10
53702.660000000003
 20
46171
 11
53702.660000000003
 21
46532.991999999998
  0
LINE
  8
_0-3_____建築
  6
CONTINUOUS
 62
    3
 10
53336.139999999999
 20
46532.991999999998
 11
53300.139999999999
 21
46532.991999999998
  0
LINE
  8
_0-3_____建築
  6
CONTINUOUS
 62
    3
 10
53336.139999999999
 20
46171
 11
53336.139999999999
 21
46532.991999999998
  0
LINE
  8
_0-3_____建築
  6
CONTINUOUS
 62
    3
 10
53300.139999999999
 20
46171
 11
53300.139999999999
 21
46532.991999999998
  0
LINE
  8
_0-3_____建築
  6
CONTINUOUS
 62
    3
 10
52933.618999999999
 20
46532.991999999998
 11
52897.618999999999
 21
46532.991999999998
  0
LINE
  8
_0-3_____建築
  6
CONTINUOUS
 62
    3
 10
52933.618999999999
 20
46171
 11
52933.618999999999
 21
46532.991999999998
  0
LINE
  8
_0-3_____建築
  6
CONTINUOUS
 62
    3
 10
52897.618999999999
 20
46171
 11
52897.618999999999
 21
46532.991999999998
  0
LINE
  8
_0-3_____建築
  6
CONTINUOUS
 62
    3
 10
52665.619000000006
 20
46541.991999999998
 11
52665.619000000006
 21
46574.403999999995
  0
LINE
  8
_0-3_____建築
  6
CONTINUOUS
 62
    3
 10
52665.619000000006
 20
46574.403999999995
 11
52665.619000000006
 21
46574.754000000001
  0
LINE
  8
_0-3_____建築
  6
CONTINUOUS
 62
    3
 10
52665.619000000006
 20
46574.754000000001
 11
52665.619000000006
 21
46575.442999999999
  0
LINE
  8
_0-3_____建築
  6
CONTINUOUS
 62
    3
 10
52665.619000000006
 20
46575.442999999999
 11
52665.619000000006
 21
46576.101000000002
  0
LINE
  8
_0-3_____建築
  6
CONTINUOUS
 62
    3
 10
52665.619000000006
 20
46576.101000000002
 11
52665.619000000006
 21
46576.707000000002
  0
LINE
  8
_0-3_____建築
  6
CONTINUOUS
 62
    3
 10
52665.619000000006
 20
46576.707000000002
 11
52665.619000000006
 21
46577.243000000002
  0
LINE
  8
_0-3_____建築
  6
CONTINUOUS
 62
    3
 10
52665.619000000006
 20
46577.243000000002
 11
52665.619000000006
 21
46577.692999999999
  0
LINE
  8
_0-3_____建築
  6
CONTINUOUS
 62
    3
 10
52665.619000000006
 20
46577.692999999999
 11
52665.619000000006
 21
46578.043000000005
  0
LINE
  8
_0-3_____建築
  6
CONTINUOUS
 62
    3
 10
52665.619000000006
 20
46578.043000000005
 11
52665.619000000006
 21
46578.255000000005
  0
LINE
  8
_0-3_____建築
  6
CONTINUOUS
 62
    3
 10
52665.619000000006
 20
46578.255000000005
 11
52665.619000000006
 21
46580.624000000003
  0
LINE
  8
_0-3_____建築
  6
CONTINUOUS
 62
    3
 10
52665.619000000006
 20
46580.624000000003
 11
52665.619000000006
 21
46582.366000000002
  0
LINE
  8
_0-3_____建築
  6
CONTINUOUS
 62
    3
 10
53970.623
 20
46541.991999999998
 11
52738.793999999994
 21
46541.991999999998
  0
LINE
  8
_0-3_____建築
  6
CONTINUOUS
 62
    3
 10
52678.794000000002
 20
46541.991999999998
 11
52665.619000000006
 21
46541.991999999998
  0
LINE
  8
_0-3_____建築
  6
CONTINUOUS
 62
    3
 10
53970.623
 20
46582.366000000002
 11
52665.619000000006
 21
46582.366000000002
  0
LINE
  8
_0-3_____建築
  6
CONTINUOUS
 62
    3
 10
52665.619000000006
 20
46234.491999999998
 11
52665.619000000006
 21
46264.491999999998
  0
LINE
  8
_0-3_____建築
  6
CONTINUOUS
 62
    3
 10
53970.623
 20
46234.491999999998
 11
53738.660000000003
 21
46234.491999999998
  0
LINE
  8
_0-3_____建築
  6
CONTINUOUS
 62
    3
 10
53702.660000000003
 20
46234.491999999998
 11
53336.139999999999
 21
46234.491999999998
  0
LINE
  8
_0-3_____建築
  6
CONTINUOUS
 62
    3
 10
53300.139999999999
 20
46234.491999999998
 11
52933.618999999999
 21
46234.491999999998
  0
LINE
  8
_0-3_____建築
  6
CONTINUOUS
 62
    3
 10
52897.618999999999
 20
46234.491999999998
 11
52755.794000000002
 21
46234.491999999998
  0
LINE
  8
_0-3_____建築
  6
CONTINUOUS
 62
    3
 10
52725.793999999994
 20
46234.491999999998
 11
52665.619000000006
 21
46234.491999999998
  0
LINE
  8
_0-3_____建築
  6
CONTINUOUS
 62
    3
 10
53970.623
 20
46264.491999999998
 11
53738.660000000003
 21
46264.491999999998
  0
LINE
  8
_0-3_____建築
  6
CONTINUOUS
 62
    3
 10
53702.660000000003
 20
46264.491999999998
 11
53336.139999999999
 21
46264.491999999998
  0
LINE
  8
_0-3_____建築
  6
CONTINUOUS
 62
    3
 10
53300.139999999999
 20
46264.491999999998
 11
52933.618999999999
 21
46264.491999999998
  0
LINE
  8
_0-3_____建築
  6
CONTINUOUS
 62
    3
 10
52897.618999999999
 20
46264.491999999998
 11
52755.794000000002
 21
46264.491999999998
  0
LINE
  8
_0-3_____建築
  6
CONTINUOUS
 62
    3
 10
52725.793999999994
 20
46264.491999999998
 11
52665.619000000006
 21
46264.491999999998
  0
LINE
  8
_0-3_____建築
  6
CONTINUOUS
 62
    3
 10
52665.619000000006
 20
46331.992000000006
 11
52665.619000000006
 21
46361.991999999998
  0
LINE
  8
_0-3_____建築
  6
CONTINUOUS
 62
    3
 10
53970.623
 20
46331.992000000006
 11
53738.660000000003
 21
46331.992000000006
  0
LINE
  8
_0-3_____建築
  6
CONTINUOUS
 62
    3
 10
53702.660000000003
 20
46331.992000000006
 11
53336.139999999999
 21
46331.992000000006
  0
LINE
  8
_0-3_____建築
  6
CONTINUOUS
 62
    3
 10
53300.139999999999
 20
46331.992000000006
 11
52933.618999999999
 21
46331.992000000006
  0
LINE
  8
_0-3_____建築
  6
CONTINUOUS
 62
    3
 10
52897.618999999999
 20
46331.992000000006
 11
52755.794000000002
 21
46331.992000000006
  0
LINE
  8
_0-3_____建築
  6
CONTINUOUS
 62
    3
 10
52725.793999999994
 20
46331.992000000006
 11
52665.619000000006
 21
46331.992000000006
  0
LINE
  8
_0-3_____建築
  6
CONTINUOUS
 62
    3
 10
53970.623
 20
46361.991999999998
 11
53738.660000000003
 21
46361.991999999998
  0
LINE
  8
_0-3_____建築
  6
CONTINUOUS
 62
    3
 10
53702.660000000003
 20
46361.991999999998
 11
53336.139999999999
 21
46361.991999999998
  0
LINE
  8
_0-3_____建築
  6
CONTINUOUS
 62
    3
 10
53300.139999999999
 20
46361.991999999998
 11
52933.618999999999
 21
46361.991999999998
  0
LINE
  8
_0-3_____建築
  6
CONTINUOUS
 62
    3
 10
52897.618999999999
 20
46361.991999999998
 11
52755.794000000002
 21
46361.991999999998
  0
LINE
  8
_0-3_____建築
  6
CONTINUOUS
 62
    3
 10
52725.793999999994
 20
46361.991999999998
 11
52665.619000000006
 21
46361.991999999998
  0
LINE
  8
_0-3_____建築
  6
CONTINUOUS
 62
    3
 10
52665.619000000006
 20
46429.491999999998
 11
52665.619000000006
 21
46459.491999999998
  0
LINE
  8
_0-3_____建築
  6
CONTINUOUS
 62
    3
 10
53970.623
 20
46429.491999999998
 11
53738.660000000003
 21
46429.491999999998
  0
LINE
  8
_0-3_____建築
  6
CONTINUOUS
 62
    3
 10
53702.660000000003
 20
46429.491999999998
 11
53336.139999999999
 21
46429.491999999998
  0
LINE
  8
_0-3_____建築
  6
CONTINUOUS
 62
    3
 10
53300.139999999999
 20
46429.491999999998
 11
52933.618999999999
 21
46429.491999999998
  0
LINE
  8
_0-3_____建築
  6
CONTINUOUS
 62
    3
 10
52897.618999999999
 20
46429.491999999998
 11
52755.794000000002
 21
46429.491999999998
  0
LINE
  8
_0-3_____建築
  6
CONTINUOUS
 62
    3
 10
52725.793999999994
 20
46429.491999999998
 11
52665.619000000006
 21
46429.491999999998
  0
LINE
  8
_0-3_____建築
  6
CONTINUOUS
 62
    3
 10
53970.623
 20
46459.491999999998
 11
53738.660000000003
 21
46459.491999999998
  0
LINE
  8
_0-3_____建築
  6
CONTINUOUS
 62
    3
 10
53702.660000000003
 20
46459.491999999998
 11
53336.139999999999
 21
46459.491999999998
  0
LINE
  8
_0-3_____建築
  6
CONTINUOUS
 62
    3
 10
53300.139999999999
 20
46459.491999999998
 11
52933.618999999999
 21
46459.491999999998
  0
LINE
  8
_0-3_____建築
  6
CONTINUOUS
 62
    3
 10
52897.618999999999
 20
46459.491999999998
 11
52755.794000000002
 21
46459.491999999998
  0
LINE
  8
_0-3_____建築
  6
CONTINUOUS
 62
    3
 10
52725.793999999994
 20
46459.491999999998
 11
52665.619000000006
 21
46459.491999999998
  0
LINE
  8
_0-3_____建築
  6
CONTINUOUS
 62
    1
 10
59468.493999999999
 20
43270
 11
59468.493999999999
 21
44693.775000000001
  0
LINE
  8
_0-3_____建築
  6
CONTINUOUS
 62
    1
 10
59468.493999999999
 20
44693.775000000001
 11
59425.076000000001
 21
44693.775000000001
  0
LINE
  8
_0-3_____建築
  6
CONTINUOUS
 62
    1
 10
59094.075999999994
 20
44693.775000000001
 11
58844.075999999994
 21
44693.775000000001
  0
LINE
  8
_0-3_____建築
  6
CONTINUOUS
 62
    1
 10
59425.076000000001
 20
43489.620000000003
 11
59468.493999999999
 21
43543.775000000001
  0
LINE
  8
_0-3_____建築
  6
CONTINUOUS
 62
    1
 10
58844.075999999994
 20
44322.603999999999
 11
59094.075999999994
 21
44010.781999999999
  0
LINE
  8
_0-3_____建築
  6
CONTINUOUS
 62
    1
 10
59425.076000000001
 20
43597.928999999996
 11
59468.493999999999
 21
43543.775000000001
  0
LINE
  8
_0-2_____基礎
  6
CONTINUOUS
 62
    3
 10
60087.793999999994
 20
42050
 11
57814.899000000005
 21
42050
  0
LINE
  8
_0-2_____基礎
  6
CONTINUOUS
 62
    3
 10
57814.899000000005
 20
42050
 11
57814.899000000005
 21
42450
  0
LINE
  8
_0-2_____基礎
  6
CONTINUOUS
 62
    3
 10
60087.793999999994
 20
42450
 11
60087.793999999994
 21
42050
  0
LINE
  8
_0-2_____基礎
  6
CONTINUOUS
 62
    3
 10
57514.899000000005
 20
42050
 11
57814.899000000005
 21
42050
  0
LINE
  8
_0-2_____基礎
  6
CONTINUOUS
 62
    3
 10
57514.899000000005
 20
42220
 11
57814.899000000005
 21
42220
  0
LINE
  8
_0-2_____基礎
  6
CONTINUOUS
 62
    3
 10
57514.899000000005
 20
42050
 11
57514.899000000005
 21
42220
  0
LINE
  8
_0-3_____建築
  6
CONTINUOUS
 62
    3
 10
60118.127000000008
 20
42450
 11
57814.899000000005
 21
42450
  0
LINE
  8
_0-3_____建築
  6
CONTINUOUS
 62
    3
 10
57814.899000000005
 20
42450
 11
57814.899000000005
 21
42470
  0
LINE
  8
_0-3_____建築
  6
CONTINUOUS
 62
    3
 10
57814.899000000005
 20
42470
 11
60118.127000000008
 21
42470
  0
LINE
  8
_0-3_____建築
  6
CONTINUOUS
 62
    3
 10
60118.127000000008
 20
42470
 11
60118.127000000008
 21
42450
  0
LINE
  8
_0-3_____建築
  6
CONTINUOUS
 62
    3
 10
60119.465000000004
 20
45650
 11
60119.465000000004
 21
42470
  0
LINE
  8
_0-3_____建築
  6
CONTINUOUS
 62
    3
 10
60119.465000000004
 20
42470
 11
60118.127000000008
 21
42470
  0
LINE
  8
_0-3_____建築
  6
CONTINUOUS
 62
    3
 10
57814.899000000005
 20
42470
 11
57814.899000000005
 21
45650
  0
LINE
  8
_0-3_____建築
  6
CONTINUOUS
 62
    3
 10
60133.127
 20
45680
 11
57799.899000000005
 21
45680
  0
LINE
  8
_0-3_____建築
  6
CONTINUOUS
 62
    3
 10
57799.899000000005
 20
45650
 11
57799.899000000005
 21
45680
  0
LINE
  8
_0-3_____建築
  6
CONTINUOUS
 62
    3
 10
57799.899000000005
 20
45650
 11
60133.127
 21
45650
  0
LINE
  8
_0-3_____建築
  6
CONTINUOUS
 62
    3
 10
60133.127
 20
45650
 11
60133.127
 21
45680
  0
LINE
  8
_0-3_____建築
  6
CONTINUOUS
 62
    3
 10
53945.623
 20
44589
 11
53920.623
 21
44589
  0
LINE
  8
_0-3_____建築
  6
CONTINUOUS
 62
    3
 10
53920.623
 20
44589
 11
53890.623000000007
 21
44672.332999999999
  0
LINE
  8
_0-3_____建築
  6
CONTINUOUS
 62
    3
 10
53890.623000000007
 20
44672.332999999999
 11
53890.623000000007
 21
44765.233999999997
  0
LINE
  8
_0-3_____建築
  6
CONTINUOUS
 62
    3
 10
60290.784
 20
47525.195
 11
60290.784
 21
47568.195
  0
LINE
  8
_0-3_____建築
  6
CONTINUOUS
 62
    3
 10
55093.168000000005
 20
50638.544000000002
 11
55093.168000000005
 21
50595.544000000002
  0
LINE
  8
_0-3_____建築
  6
CONTINUOUS
 62
    3
 10
55093.168000000005
 20
50638.544000000002
 11
60290.784
 21
47568.195
  0
LINE
  8
_0-3_____建築
  6
CONTINUOUS
 62
    3
 10
60290.784
 20
47525.195
 11
55093.168000000005
 21
50595.544000000002
  0
LINE
  8
_0-3_____建築
  6
CONTINUOUS
 62
    3
 10
53781.127
 20
50637.635000000002
 11
55093.168000000005
 21
50637.635000000002
  0
LINE
  8
_0-3_____建築
  6
CONTINUOUS
 62
    3
 10
55093.168000000005
 20
50595.544000000002
 11
55093.168000000005
 21
50594.635000000002
  0
LINE
  8
_0-3_____建築
  6
CONTINUOUS
 62
    3
 10
55093.168000000005
 20
50594.635000000002
 11
53781.127
 21
50594.635000000002
  0
LINE
  8
_0-3_____建築
  6
CONTINUOUS
 62
    3
 10
53781.127
 20
50594.635000000002
 11
53781.127
 21
50637.635000000002
  0
LINE
  8
_0-3_____建築
  6
CONTINUOUS
 62
    3
 10
53781.127
 20
50594.635000000002
 11
53781.127
 21
48148.444000000003
  0
LINE
  8
_0-3_____建築
  6
CONTINUOUS
 62
    3
 10
58927.300000000003
 20
48330.635999999999
 11
58927.300000000003
 21
48330.302000000003
  0
LINE
  8
_0-3_____建築
  6
CONTINUOUS
 62
    3
 10
58927.300000000003
 20
48330.302000000003
 11
55093.168000000005
 21
50594.635000000002
  0
LINE
  8
_0-3_____建築
  6
CONTINUOUS
 62
    3
 10
58927.300000000003
 20
48311.468000000001
 11
58927.300000000003
 21
48330.302000000003
  0
LINE
  8
_0-3_____建築
  6
CONTINUOUS
 62
    3
 10
58512.995000000003
 20
43270
 11
58262.995000000003
 21
43270
  0
LINE
  8
_0-3_____建築
  6
CONTINUOUS
 62
    3
 10
58512.995000000003
 20
44770
 11
58512.995000000003
 21
43270
  0
LINE
  8
_0-3_____建築
  6
CONTINUOUS
 62
    3
 10
58262.995000000003
 20
44770
 11
58512.995000000003
 21
44770
  0
LINE
  8
_0-3_____建築
  6
CONTINUOUS
 62
    3
 10
58262.995000000003
 20
43270
 11
58262.995000000003
 21
44770
  0
LINE
  8
_0-3_____建築
  6
CONTINUOUS
 62
    3
 10
58844.075999999994
 20
44770
 11
59094.075999999994
 21
44770
  0
LINE
  8
_0-3_____建築
  6
CONTINUOUS
 62
    3
 10
58844.075999999994
 20
43270
 11
58844.075999999994
 21
44770
  0
LINE
  8
_0-3_____建築
  6
CONTINUOUS
 62
    3
 10
59094.075999999994
 20
43270
 11
58844.075999999994
 21
43270
  0
LINE
  8
_0-3_____建築
  6
CONTINUOUS
 62
    3
 10
59094.075999999994
 20
44770
 11
59094.075999999994
 21
43270
  0
LINE
  8
_0-3_____建築
  6
CONTINUOUS
 62
    3
 10
59675.076000000001
 20
43270
 11
59425.076000000001
 21
43270
  0
LINE
  8
_0-3_____建築
  6
CONTINUOUS
 62
    3
 10
59675.076000000001
 20
44770
 11
59675.076000000001
 21
43270
  0
LINE
  8
_0-3_____建築
  6
CONTINUOUS
 62
    3
 10
59425.076000000001
 20
44770
 11
59675.076000000001
 21
44770
  0
LINE
  8
_0-3_____建築
  6
CONTINUOUS
 62
    3
 10
59425.076000000001
 20
43270
 11
59425.076000000001
 21
44770
  0
TEXT
  8
_0-5_____敷地
 62
    3
 10
47604.004999999997
 20
41992.707999999999
 40
266.66666666666663
 41
1
 50
0
  1
　 　▽
  0
ENDSEC
  0
EOF
