  0
SECTION
  2
HEADER
  9
$ACADVER
  1
AC1009
  9
$INSBASE
 10
0
 20
0
 30
0
  9
$EXTMIN
 10
0
 20
0
  9
$EXTMAX
 10
118900
 20
84100
  9
$LIMMIN
 10
0
 20
0
  9
$LIMMAX
 10
118900
 20
84100
  9
$LTSCALE
 40
100
  0
ENDSEC
  0
SECTION
  2
TABLES
  0
TABLE
  2
LTYPE
 70
     9
  0
LTYPE
  2
CONTINUOUS
 70
    64
  3
実線
 72
    65
 73
     0
 40
0.0
  0
LTYPE
  2
DASHED1
 70
    64
  3
--  --  --  --  --  --  --  --  
 72
    65
 73
     2
 40
2.5
 49
1.25
 49
-1.25
  0
LTYPE
  2
DASHED2
 70
    64
  3
----    ----    ----    ----    
 72
    65
 73
     2
 40
5.0
 49
2.5
 49
-2.5
  0
LTYPE
  2
DASHED3
 70
    64
  3
------  ------  ------  ------  
 72
    65
 73
     2
 40
5.0
 49
3.75
 49
-1.25
  0
LTYPE
  2
CENTER1
 70
    64
  3
----- - ----- - ----- - ----- - 
 72
    65
 73
     4
 40
10.0
 49
6.25
 49
-1.25
 49
1.25
 49
-1.25
  0
LTYPE
  2
CENTER2
 70
    64
  3
----------  --  ----------  --  
 72
    65
 73
     4
 40
20.0
 49
12.5
 49
-2.5
 49
2.5
 49
-2.5
  0
LTYPE
  2
PHANTOM1
 70
    64
  3
--- - - --- - - --- - - --- - - 
 72
    65
 73
     6
 40
10.0
 49
3.25
 49
-1.25
 49
1.25
 49
-1.25
 49
1.25
 49
-1.25
  0
LTYPE
  2
PHANTOM2
 70
    64
  3
--------  -  -  --------  -  -  
 72
    65
 73
     6
 40
20.0
 49
10.0
 49
-2.5
 49
1.25
 49
-2.5
 49
1.25
 49
-2.5
  0
LTYPE
  2
DOT
 70
    64
  3
-   -   -   -   -   -   -   -   
 72
    65
 73
     2
 40
2.5
 49
0.625
 49
-1.875
  0
LTYPE
  2
DUMMY
 70
    64
  3
ダミー
 72
    65
 73
     0
 40
0.0
  0
LTYPE
  2
RAND1
 70
    64
  3
ランダム線1
 72
    65
 73
     4
 40
10.0
 49
1.0
 49
-2.0
 49
3.0
 49
-4.0
  0
LTYPE
  2
RAND2
 70
    64
  3
ランダム線2
 72
    65
 73
     4
 40
14.0
 49
2.0
 49
-3.0
 49
4.0
 49
-5.0
  0
LTYPE
  2
RAND3
 70
    64
  3
ランダム線3
 72
    65
 73
     4
 40
18.0
 49
3.0
 49
-4.0
 49
5.0
 49
-6.0
  0
LTYPE
  2
RAND4
 70
    64
  3
ランダム線4
 72
    65
 73
     4
 40
22.0
 49
4.0
 49
-5.0
 49
6.0
 49
-7.0
  0
LTYPE
  2
RAND5
 70
    64
  3
ランダム線5
 72
    65
 73
     4
 40
26.0
 49
5.0
 49
-6.0
 49
7.0
 49
-8.0
  0
LTYPE
  2
LONG1
 70
    64
  3
----------  --  ----------  --  
 72
    65
 73
     4
 40
40.0
 49
32.5
 49
-2.5
 49
2.5
 49
-2.5
  0
LTYPE
  2
LONG2
 70
    64
  3
--------  -  -  --------  -  -  
 72
    65
 73
     6
 40
40.0
 49
30.0
 49
-2.5
 49
1.25
 49
-2.5
 49
1.25
 49
-2.5
  0
LTYPE
  2
LONG3
 70
    64
  3
+++++++++++++++..+++++++++++++++
 72
    65
 73
     2
 40
40.0
 49
37.5
 49
-2.5
  0
LTYPE
  2
LONG4
 70
    64
  3
+++++++++++++++..+++++++++++++++
 72
    65
 73
     2
 40
80.0
 49
75.0
 49
-5.0
  0
LTYPE
  2
LONG5
 70
    64
  3
----------  --  ----------  --  
 72
    65
 73
     4
 40
60.0
 49
37.5
 49
-7.5
 49
7.5
 49
-7.5
  0
LTYPE
  2
dashed
 70
   64
  3
-------   -------------   ------
 72
   65
 73
    2
 40
7.5
 49
6
 49
-1.5
  0
LTYPE
  2
dashed_spaced
 70
   64
  3
----        --------        ----
 72
   65
 73
    2
 40
12
 49
6
 49
-6
  0
LTYPE
  2
long_dashed_dotted
 70
   64
  3
------------- --- --------------
 72
   65
 73
    4
 40
15.25
 49
12
 49
-1.5
 49
0.25
 49
-1.5
  0
LTYPE
  2
long_dashed_double-dotted
 70
   64
  3
----------- --- --- ------------
 72
   65
 73
    6
 40
17
 49
12
 49
-1.5
 49
0.25
 49
-1.5
 49
0.25
 49
-1.5
  0
LTYPE
  2
long_dashed_triplicate-dotted
 70
   64
  3
--------- --- --- --- ----------
 72
   65
 73
    8
 40
18.75
 49
12
 49
-1.5
 49
0.25
 49
-1.5
 49
0.25
 49
-1.5
 49
0.25
 49
-1.5
  0
LTYPE
  2
dotted
 70
   64
  3
   -       -       -       -    
 72
   65
 73
    2
 40
1.75
 49
0.25
 49
-1.5
  0
LTYPE
  2
chain
 70
   64
  3
-------------- -- --------------
 72
   65
 73
    4
 40
18.5
 49
12
 49
-1.5
 49
3.5
 49
-1.5
  0
LTYPE
  2
chain_double_dash
 70
   64
  3
------------ -- -- -------------
 72
   65
 73
    6
 40
23.5
 49
12
 49
-1.5
 49
3.5
 49
-1.5
 49
3.5
 49
-1.5
  0
LTYPE
  2
dashed_dotted
 70
   64
  3
-----------     -     ----------
 72
   65
 73
    4
 40
9.25
 49
6
 49
-1.5
 49
0.25
 49
-1.5
  0
LTYPE
  2
double-dashed_dotted
 70
   64
  3
------   -----------   -   -----
 72
   65
 73
    6
 40
16.75
 49
6
 49
-1.5
 49
6
 49
-1.5
 49
0.25
 49
-1.5
  0
LTYPE
  2
dashed_double-dotted
 70
   64
  3
---------    -    -    ---------
 72
   65
 73
    6
 40
11
 49
6
 49
-1.5
 49
0.25
 49
-1.5
 49
0.25
 49
-1.5
  0
LTYPE
  2
double-dashed_double-dotted
 70
   64
  3
-----   ---------   -   -   ----
 72
   65
 73
    8
 40
18.5
 49
6
 49
-1.5
 49
6
 49
-1.5
 49
0.25
 49
-1.5
 49
0.25
 49
-1.5
  0
LTYPE
  2
dashed_triplicate-dotted
 70
   64
  3
-------    -    -    -    ------
 72
   65
 73
    8
 40
12.75
 49
6
 49
-1.5
 49
0.25
 49
-1.5
 49
0.25
 49
-1.5
 49
0.25
 49
-1.5
  0
LTYPE
  2
double-dashed_triplicate-dotted
 70
   64
  3
-----  ---------  -  -  -  -----
 72
   65
 73
   10
 40
20.25
 49
6
 49
-1.5
 49
6
 49
-1.5
 49
0.25
 49
-1.5
 49
0.25
 49
-1.5
 49
0.25
 49
-1.5
  0
LTYPE
  2
undefined
 70
   64
  3
--------------------------------
 72
   65
 73
    0
 40
0
  0
ENDTAB
  0
TABLE
  2
STYLE
  5
3
100
AcDbSymbolTable
 70
     1
  0
STYLE
  5
10
100
AcDbSymbolTableRecord
100
AcDbTextStyleTableRecord
  2
STANDARD
 70
     0
 40
0.0
 41
1.0
 50
0.0
 71
     0
 42
0.2
  3
txt
  4
bigfont.shx
  0
STYLE
  5
26
100
AcDbSymbolTableRecord
100
AcDbTextStyleTableRecord
  2
TATEGAKI
 70
    68
 40
0.0
 41
1.0
 50
0.0
 71
     0
 42
1.0
  3
txt
  4
bigfont.shx
  0
ENDTAB
  0
TABLE
  2
LAYER
 70
    4
  0
LAYER
  2
_0-2_____基礎
 70
   64
 62
    7
  6
CONTINUOUS
  0
LAYER
  2
_0-3_____建築
 70
   64
 62
    7
  6
CONTINUOUS
  0
LAYER
  2
_0-5_____敷地
 70
   64
 62
    7
  6
CONTINUOUS
  0
LAYER
  2
ADD_LINE
 70
   64
 62
    7
  6
CONTINUOUS
  0
ENDTAB
  0
ENDSEC
  0
SECTION
  2
BLOCKS
  0
ENDSEC
  0
SECTION
  2
ENTITIES
  0
LINE
  8
_0-5_____敷地
  6
CONTINUOUS
 62
    3
 10
47077.252
 20
41081.93
 11
47677.252
 21
41081.93
  0
LINE
  8
_0-5_____敷地
  6
CONTINUOUS
 62
    3
 10
47077.252
 20
41081.93
 11
47077.252
 21
41381.93
  0
LINE
  8
_0-5_____敷地
  6
CONTINUOUS
 62
    3
 10
47377.252
 20
41081.93
 11
47077.252
 21
41381.93
  0
LINE
  8
_0-5_____敷地
  6
CONTINUOUS
 62
    3
 10
47677.252
 20
41081.93
 11
47677.252
 21
41381.93
  0
LINE
  8
_0-5_____敷地
  6
CONTINUOUS
 62
    3
 10
47677.252
 20
41381.93
 11
47377.252
 21
41081.93
  0
LINE
  8
_0-5_____敷地
  6
CONTINUOUS
 62
    3
 10
63577.252
 20
41081.93
 11
64177.252
 21
41081.93
  0
LINE
  8
_0-5_____敷地
  6
CONTINUOUS
 62
    3
 10
63577.252
 20
41081.93
 11
63577.252
 21
41381.93
  0
LINE
  8
_0-5_____敷地
  6
CONTINUOUS
 62
    3
 10
63877.252
 20
41081.93
 11
63577.252
 21
41381.93
  0
LINE
  8
_0-5_____敷地
  6
CONTINUOUS
 62
    3
 10
64177.252
 20
41081.93
 11
64177.252
 21
41381.93
  0
LINE
  8
_0-5_____敷地
  6
CONTINUOUS
 62
    3
 10
64177.252
 20
41381.93
 11
63877.252
 21
41081.93
  0
TEXT
  8
_0-5_____敷地
 62
    1
 10
46566.440999999999
 20
40631.718000000001
 40
333.33333333333331
 41
1
 50
0
  1
隣地境界線
  0
TEXT
  8
_0-5_____敷地
 62
    3
 10
63066.440999999999
 20
40643.998
 40
333.33333333333331
 41
0.8
 50
0
  1
道路境界線
  0
TEXT
  8
_0-5_____敷地
 62
    3
 10
45939.461000000003
 20
42392.707999999999
 40
266.66666666666663
 41
0.8
 50
0
  1
設計GL＝±0
  0
LINE
  8
_0-5_____敷地
  6
CONTINUOUS
 62
    3
 10
45932.413
 20
42050
 11
65833.524000000005
 21
42050
  0
LINE
  8
_0-5_____敷地
  6
CONTINUOUS
 62
    3
 10
47377.252
 20
51492.294999999998
 11
47377.252
 21
41081.93
  0
LINE
  8
_0-5_____敷地
  6
CONTINUOUS
 62
    3
 10
63877.252
 20
51492.294999999998
 11
63877.252
 21
41081.93
  0
LINE
  8
_0-3_____建築
  6
CONTINUOUS
 62
    3
 10
58487.252
 20
47173.542999999998
 11
58477.252
 21
42450
  0
LINE
  8
_0-3_____建築
  6
CONTINUOUS
 62
    3
 10
58462.252
 20
47526.131999999998
 11
58462.252
 21
46171
  0
LINE
  8
_0-3_____建築
  6
CONTINUOUS
 62
    3
 10
58312.252
 20
47863.798999999999
 11
58312.252
 21
46171
  0
LINE
  8
_0-3_____建築
  6
CONTINUOUS
 62
    3
 10
52035.748999999996
 20
50203.696000000004
 11
52035.748999999996
 21
46171
  0
LINE
  8
_0-3_____建築
  6
CONTINUOUS
 62
    3
 10
48271.919000000002
 20
47945.762000000002
 11
48271.919000000002
 21
42450
  0
LINE
  8
_0-3_____建築
  6
CONTINUOUS
 62
    3
 10
52107.251999999993
 20
42470
 11
52107.251999999993
 21
45119.708000000006
  0
LINE
  8
_0-3_____建築
  6
CONTINUOUS
 62
    3
 10
48271.919000000002
 20
45119.708000000006
 11
58463.412000000004
 21
45119.708000000006
  0
POINT
  8
_0-5_____敷地
 62
    5
 10
47377.252
 20
42050
  0
LINE
  8
_0-2_____基礎
  6
CONTINUOUS
 62
    3
 10
52092.251999999993
 20
42050
 11
52092.251999999993
 21
42450
  0
LINE
  8
_0-2_____基礎
  6
CONTINUOUS
 62
    3
 10
52092.251999999993
 20
42050
 11
48452.252
 21
42050
  0
LINE
  8
_0-2_____基礎
  6
CONTINUOUS
 62
    3
 10
58462.252
 20
42050
 11
52092.251999999993
 21
42050
  0
LINE
  8
_0-2_____基礎
  6
CONTINUOUS
 62
    3
 10
58462.252
 20
42050
 11
58462.252
 21
42450
  0
LINE
  8
_0-3_____建築
  6
CONTINUOUS
 62
    3
 10
48287.252
 20
42450
 11
48287.252
 21
42470
  0
LINE
  8
_0-3_____建築
  6
CONTINUOUS
 62
    3
 10
52107.251999999993
 20
42450
 11
52107.251999999993
 21
42470
  0
LINE
  8
_0-3_____建築
  6
CONTINUOUS
 62
    3
 10
52107.251999999993
 20
42450
 11
48287.252
 21
42450
  0
LINE
  8
_0-3_____建築
  6
CONTINUOUS
 62
    3
 10
58462.252
 20
42470
 11
58477.252
 21
42470
  0
LINE
  8
_0-3_____建築
  6
CONTINUOUS
 62
    3
 10
58477.252
 20
42450
 11
52107.251999999993
 21
42450
  0
LINE
  8
_0-3_____建築
  6
CONTINUOUS
 62
    3
 10
58477.252
 20
42450
 11
58477.252
 21
42470
  0
LINE
  8
_0-3_____建築
  6
CONTINUOUS
 62
    2
 10
51969.165000000001
 20
42470
 11
48421.919000000002
 21
42470
  0
LINE
  8
_0-3_____建築
  6
CONTINUOUS
 62
    2
 10
58312.252
 20
42470
 11
52119.165000000001
 21
42470
  0
LINE
  8
_0-3_____建築
  6
CONTINUOUS
 62
    2
 10
58388.349000000002
 20
45119.708000000006
 11
58388.349000000002
 21
42470
  0
LINE
  8
_0-3_____建築
  6
CONTINUOUS
 62
    2
 10
58388.349000000002
 20
42470
 11
58462.252
 21
42470
  0
LINE
  8
_0-3_____建築
  6
CONTINUOUS
 62
    2
 10
58312.252
 20
42470
 11
58312.252
 21
45119.708000000006
  0
LINE
  8
_0-3_____建築
  6
CONTINUOUS
 62
    2
 10
58312.252
 20
46171
 11
58312.252
 21
46234.491999999998
  0
LINE
  8
_0-3_____建築
  6
CONTINUOUS
 62
    2
 10
58312.252
 20
46264.491999999998
 11
58312.252
 21
46331.992000000006
  0
LINE
  8
_0-3_____建築
  6
CONTINUOUS
 62
    2
 10
58312.252
 20
46361.991999999998
 11
58312.252
 21
46429.491999999998
  0
LINE
  8
_0-3_____建築
  6
CONTINUOUS
 62
    2
 10
58312.252
 20
46459.491999999998
 11
58312.252
 21
46541.991999999998
  0
LINE
  8
_0-3_____建築
  6
CONTINUOUS
 62
    2
 10
58312.252
 20
46582.366000000002
 11
58312.252
 21
47863.798999999999
  0
LINE
  8
_0-3_____建築
  6
CONTINUOUS
 62
    2
 10
58312.252
 20
50231.200000000004
 11
58312.252
 21
48697.822
  0
LINE
  8
_0-3_____建築
  6
CONTINUOUS
 62
    2
 10
58462.252
 20
46171
 11
58462.252
 21
47863.798999999999
  0
LINE
  8
_0-3_____建築
  6
CONTINUOUS
 62
    2
 10
58462.252
 20
42470
 11
58462.252
 21
45119.708000000006
  0
LINE
  8
_0-3_____建築
  6
CONTINUOUS
 62
    2
 10
58462.252
 20
50231.200000000004
 11
58462.252
 21
48697.822
  0
LINE
  8
_0-3_____建築
  6
CONTINUOUS
 62
    2
 10
58312.252
 20
42470
 11
58388.349000000002
 21
42470
  0
LINE
  8
_0-3_____建築
  6
CONTINUOUS
 62
    2
 10
58462.252
 20
50231.200000000004
 11
58312.252
 21
50231.200000000004
  0
LINE
  8
_0-3_____建築
  6
CONTINUOUS
 62
    2
 10
52119.165000000001
 20
42470
 11
52119.165000000001
 21
45119.708000000006
  0
LINE
  8
_0-3_____建築
  6
CONTINUOUS
 62
    2
 10
51969.165000000001
 20
42470
 11
52119.165000000001
 21
42470
  0
LINE
  8
_0-3_____建築
  6
CONTINUOUS
 62
    2
 10
48271.919000000002
 20
45119.708000000006
 11
48271.919000000002
 21
42470
  0
LINE
  8
_0-3_____建築
  6
CONTINUOUS
 62
    2
 10
48421.919000000002
 20
42470
 11
48271.919000000002
 21
42470
  0
LINE
  8
_0-3_____建築
  6
CONTINUOUS
 62
    2
 10
48271.919000000002
 20
45119.708000000006
 11
48271.919000000002
 21
46151.033000000003
  0
LINE
  8
_0-3_____建築
  6
CONTINUOUS
 62
    2
 10
48271.919000000002
 20
45119.708000000006
 11
58463.412000000004
 21
45119.708000000006
  0
LINE
  8
_0-3_____建築
  6
CONTINUOUS
 62
    2
 10
58463.412000000004
 20
45119.708000000006
 11
58463.412000000004
 21
46151.033000000003
  0
LINE
  8
_0-3_____建築
  6
CONTINUOUS
 62
    2
 10
48271.919000000002
 20
47945.762000000002
 11
48271.919000000002
 21
46171
  0
LINE
  8
_0-3_____建築
  6
CONTINUOUS
 62
    2
 10
52035.748999999996
 20
46171
 11
52035.748999999996
 21
46234.491999999998
  0
LINE
  8
_0-3_____建築
  6
CONTINUOUS
 62
    2
 10
52035.748999999996
 20
46264.491999999998
 11
52035.748999999996
 21
46331.992000000006
  0
LINE
  8
_0-3_____建築
  6
CONTINUOUS
 62
    2
 10
52035.748999999996
 20
46361.991999999998
 11
52035.748999999996
 21
46429.491999999998
  0
LINE
  8
_0-3_____建築
  6
CONTINUOUS
 62
    2
 10
52035.748999999996
 20
46459.491999999998
 11
52035.748999999996
 21
46541.991999999998
  0
LINE
  8
_0-3_____建築
  6
CONTINUOUS
 62
    2
 10
52035.748999999996
 20
46582.366000000002
 11
52035.748999999996
 21
47863.798999999999
  0
LINE
  8
_0-3_____建築
  6
CONTINUOUS
 62
    2
 10
52035.748999999996
 20
48089.323000000004
 11
52035.748999999996
 21
50203.696000000004
  0
LINE
  8
_0-3_____建築
  6
CONTINUOUS
 62
    2
 10
58297.252
 20
48697.822
 11
58297.252
 21
50231.200000000004
  0
LINE
  8
_0-3_____建築
  6
CONTINUOUS
 62
    2
 10
58297.252
 20
50231.200000000004
 11
52081.595000000001
 21
50231.200000000004
  0
LINE
  8
_0-3_____建築
  6
CONTINUOUS
 62
    3
 10
48256.919000000002
 20
46151.033000000003
 11
48256.919000000002
 21
46171
  0
LINE
  8
_0-3_____建築
  6
CONTINUOUS
 62
    3
 10
48256.919000000002
 20
46171
 11
58478.425000000003
 21
46171
  0
LINE
  8
_0-3_____建築
  6
CONTINUOUS
 62
    3
 10
58478.425000000003
 20
46151.033000000003
 11
58478.425000000003
 21
46171
  0
LINE
  8
_0-3_____建築
  6
CONTINUOUS
 62
    3
 10
58478.425000000003
 20
46151.033000000003
 11
48256.919000000002
 21
46151.033000000003
  0
LINE
  8
_0-3_____建築
  6
CONTINUOUS
 62
    3
 10
48204.078999999998
 20
46350.784
 11
48271.919000000002
 21
46350.784
  0
LINE
  8
_0-3_____建築
  6
CONTINUOUS
 62
    3
 10
48204.078999999998
 20
46303.618999999999
 11
48204.078999999998
 21
46350.784
  0
LINE
  8
_0-3_____建築
  6
CONTINUOUS
 62
    3
 10
48204.078999999998
 20
46303.618999999999
 11
48204.078999999998
 21
45338.429000000004
  0
LINE
  8
_0-3_____建築
  6
CONTINUOUS
 62
    3
 10
48204.078999999998
 20
45338.429000000004
 11
48234.078999999998
 21
45338.429000000004
  0
LINE
  8
_0-3_____建築
  6
CONTINUOUS
 62
    3
 10
48234.078999999998
 20
46303.618999999999
 11
48204.078999999998
 21
46303.618999999999
  0
LINE
  8
_0-3_____建築
  6
CONTINUOUS
 62
    3
 10
48271.919000000002
 20
46091.379999999997
 11
48234.078999999998
 21
46091.379999999997
  0
LINE
  8
_0-3_____建築
  6
CONTINUOUS
 62
    3
 10
48234.078999999998
 20
46091.379999999997
 11
48234.078999999998
 21
46303.618999999999
  0
LINE
  8
_0-3_____建築
  6
CONTINUOUS
 62
    3
 10
48234.078999999998
 20
46091.379999999997
 11
48234.078999999998
 21
45141.790000000001
  0
LINE
  8
_0-3_____建築
  6
CONTINUOUS
 62
    3
 10
48234.078999999998
 20
45141.790000000001
 11
48271.919000000002
 21
45141.790000000001
  0
LINE
  8
_0-3_____建築
  6
CONTINUOUS
 62
    1
 10
57969.749000000003
 20
48155.392999999996
 11
58717.251999999993
 21
48155.392999999996
  0
LINE
  8
_0-3_____建築
  6
CONTINUOUS
 62
    1
 10
56980.749000000003
 20
48155.392999999996
 11
57970.199999999997
 21
48155.392999999996
  0
LINE
  8
_0-3_____建築
  6
CONTINUOUS
 62
    1
 10
57969.749000000003
 20
48221.463000000003
 11
58717.251999999993
 21
48221.463000000003
  0
LINE
  8
_0-3_____建築
  6
CONTINUOUS
 62
    1
 10
55991.749000000003
 20
48155.392999999996
 11
56981.200000000004
 21
48155.392999999996
  0
LINE
  8
_0-3_____建築
  6
CONTINUOUS
 62
    1
 10
56980.749000000003
 20
48221.463000000003
 11
57970.199999999997
 21
48221.463000000003
  0
LINE
  8
_0-3_____建築
  6
CONTINUOUS
 62
    1
 10
57969.749000000003
 20
48287.533000000003
 11
58717.251999999993
 21
48287.533000000003
  0
LINE
  8
_0-3_____建築
  6
CONTINUOUS
 62
    1
 10
55002.748999999996
 20
48155.392999999996
 11
55992.200000000004
 21
48155.392999999996
  0
LINE
  8
_0-3_____建築
  6
CONTINUOUS
 62
    1
 10
55991.749000000003
 20
48221.463000000003
 11
56981.200000000004
 21
48221.463000000003
  0
LINE
  8
_0-3_____建築
  6
CONTINUOUS
 62
    1
 10
56980.749000000003
 20
48287.533000000003
 11
57970.199999999997
 21
48287.533000000003
  0
LINE
  8
_0-3_____建築
  6
CONTINUOUS
 62
    1
 10
57969.749000000003
 20
48353.602999999996
 11
58717.251999999993
 21
48353.602999999996
  0
LINE
  8
_0-3_____建築
  6
CONTINUOUS
 62
    1
 10
54013.748999999996
 20
48155.392999999996
 11
55003.200000000004
 21
48155.392999999996
  0
LINE
  8
_0-3_____建築
  6
CONTINUOUS
 62
    1
 10
55002.748999999996
 20
48221.463000000003
 11
55992.200000000004
 21
48221.463000000003
  0
LINE
  8
_0-3_____建築
  6
CONTINUOUS
 62
    1
 10
55991.749000000003
 20
48287.533000000003
 11
56981.200000000004
 21
48287.533000000003
  0
LINE
  8
_0-3_____建築
  6
CONTINUOUS
 62
    1
 10
56980.749000000003
 20
48353.602999999996
 11
57970.199999999997
 21
48353.602999999996
  0
LINE
  8
_0-3_____建築
  6
CONTINUOUS
 62
    1
 10
57969.749000000003
 20
48419.673000000003
 11
58717.251999999993
 21
48419.673000000003
  0
LINE
  8
_0-3_____建築
  6
CONTINUOUS
 62
    1
 10
53024.748999999996
 20
48155.392999999996
 11
54014.200000000004
 21
48155.392999999996
  0
LINE
  8
_0-3_____建築
  6
CONTINUOUS
 62
    1
 10
54013.748999999996
 20
48221.463000000003
 11
55003.200000000004
 21
48221.463000000003
  0
LINE
  8
_0-3_____建築
  6
CONTINUOUS
 62
    1
 10
55002.748999999996
 20
48287.533000000003
 11
55992.200000000004
 21
48287.533000000003
  0
LINE
  8
_0-3_____建築
  6
CONTINUOUS
 62
    1
 10
55991.749000000003
 20
48353.602999999996
 11
56981.200000000004
 21
48353.602999999996
  0
LINE
  8
_0-3_____建築
  6
CONTINUOUS
 62
    1
 10
56980.749000000003
 20
48419.673000000003
 11
57970.199999999997
 21
48419.673000000003
  0
LINE
  8
_0-3_____建築
  6
CONTINUOUS
 62
    1
 10
57969.749000000003
 20
48485.743999999999
 11
58717.251999999993
 21
48485.743999999999
  0
LINE
  8
_0-3_____建築
  6
CONTINUOUS
 62
    1
 10
52035.748999999996
 20
48155.392999999996
 11
53025.199999999997
 21
48155.392999999996
  0
LINE
  8
_0-3_____建築
  6
CONTINUOUS
 62
    1
 10
53024.748999999996
 20
48221.463000000003
 11
54014.200000000004
 21
48221.463000000003
  0
LINE
  8
_0-3_____建築
  6
CONTINUOUS
 62
    1
 10
54013.748999999996
 20
48287.533000000003
 11
55003.200000000004
 21
48287.533000000003
  0
LINE
  8
_0-3_____建築
  6
CONTINUOUS
 62
    1
 10
55002.748999999996
 20
48353.602999999996
 11
55992.200000000004
 21
48353.602999999996
  0
LINE
  8
_0-3_____建築
  6
CONTINUOUS
 62
    1
 10
55991.749000000003
 20
48419.673000000003
 11
56981.200000000004
 21
48419.673000000003
  0
LINE
  8
_0-3_____建築
  6
CONTINUOUS
 62
    1
 10
56980.749000000003
 20
48485.743999999999
 11
57970.199999999997
 21
48485.743999999999
  0
LINE
  8
_0-3_____建築
  6
CONTINUOUS
 62
    1
 10
57969.749000000003
 20
48551.813999999998
 11
58717.251999999993
 21
48551.813999999998
  0
LINE
  8
_0-3_____建築
  6
CONTINUOUS
 62
    1
 10
52035.748999999996
 20
48155.392999999996
 11
52036.199999999997
 21
48155.392999999996
  0
LINE
  8
_0-3_____建築
  6
CONTINUOUS
 62
    1
 10
52035.748999999996
 20
48221.463000000003
 11
53025.199999999997
 21
48221.463000000003
  0
LINE
  8
_0-3_____建築
  6
CONTINUOUS
 62
    1
 10
53024.748999999996
 20
48287.533000000003
 11
54014.200000000004
 21
48287.533000000003
  0
LINE
  8
_0-3_____建築
  6
CONTINUOUS
 62
    1
 10
54013.748999999996
 20
48353.602999999996
 11
55003.200000000004
 21
48353.602999999996
  0
LINE
  8
_0-3_____建築
  6
CONTINUOUS
 62
    1
 10
55002.748999999996
 20
48419.673000000003
 11
55992.200000000004
 21
48419.673000000003
  0
LINE
  8
_0-3_____建築
  6
CONTINUOUS
 62
    1
 10
55991.749000000003
 20
48485.743999999999
 11
56981.200000000004
 21
48485.743999999999
  0
LINE
  8
_0-3_____建築
  6
CONTINUOUS
 62
    1
 10
56980.749000000003
 20
48551.813999999998
 11
57970.199999999997
 21
48551.813999999998
  0
LINE
  8
_0-3_____建築
  6
CONTINUOUS
 62
    1
 10
57969.749000000003
 20
48617.883999999998
 11
58717.251999999993
 21
48617.883999999998
  0
LINE
  8
_0-3_____建築
  6
CONTINUOUS
 62
    1
 10
52035.748999999996
 20
48221.463000000003
 11
52036.199999999997
 21
48221.463000000003
  0
LINE
  8
_0-3_____建築
  6
CONTINUOUS
 62
    1
 10
52035.748999999996
 20
48287.533000000003
 11
53025.199999999997
 21
48287.533000000003
  0
LINE
  8
_0-3_____建築
  6
CONTINUOUS
 62
    1
 10
53024.748999999996
 20
48353.602999999996
 11
54014.200000000004
 21
48353.602999999996
  0
LINE
  8
_0-3_____建築
  6
CONTINUOUS
 62
    1
 10
54013.748999999996
 20
48419.673000000003
 11
55003.200000000004
 21
48419.673000000003
  0
LINE
  8
_0-3_____建築
  6
CONTINUOUS
 62
    1
 10
55002.748999999996
 20
48485.743999999999
 11
55992.200000000004
 21
48485.743999999999
  0
LINE
  8
_0-3_____建築
  6
CONTINUOUS
 62
    1
 10
55991.749000000003
 20
48551.813999999998
 11
56981.200000000004
 21
48551.813999999998
  0
LINE
  8
_0-3_____建築
  6
CONTINUOUS
 62
    1
 10
56980.749000000003
 20
48617.883999999998
 11
57970.199999999997
 21
48617.883999999998
  0
LINE
  8
_0-3_____建築
  6
CONTINUOUS
 62
    1
 10
57969.749000000003
 20
48683.953999999998
 11
58717.251999999993
 21
48683.953999999998
  0
LINE
  8
_0-3_____建築
  6
CONTINUOUS
 62
    1
 10
52035.748999999996
 20
48287.533000000003
 11
52036.199999999997
 21
48287.533000000003
  0
LINE
  8
_0-3_____建築
  6
CONTINUOUS
 62
    1
 10
52035.748999999996
 20
48353.602999999996
 11
53025.199999999997
 21
48353.602999999996
  0
LINE
  8
_0-3_____建築
  6
CONTINUOUS
 62
    1
 10
53024.748999999996
 20
48419.673000000003
 11
54014.200000000004
 21
48419.673000000003
  0
LINE
  8
_0-3_____建築
  6
CONTINUOUS
 62
    1
 10
54013.748999999996
 20
48485.743999999999
 11
55003.200000000004
 21
48485.743999999999
  0
LINE
  8
_0-3_____建築
  6
CONTINUOUS
 62
    1
 10
55002.748999999996
 20
48551.813999999998
 11
55992.200000000004
 21
48551.813999999998
  0
LINE
  8
_0-3_____建築
  6
CONTINUOUS
 62
    1
 10
55991.749000000003
 20
48617.883999999998
 11
56981.200000000004
 21
48617.883999999998
  0
LINE
  8
_0-3_____建築
  6
CONTINUOUS
 62
    1
 10
56980.749000000003
 20
48683.953999999998
 11
57970.199999999997
 21
48683.953999999998
  0
LINE
  8
_0-3_____建築
  6
CONTINUOUS
 62
    1
 10
52035.748999999996
 20
48353.602999999996
 11
52036.199999999997
 21
48353.602999999996
  0
LINE
  8
_0-3_____建築
  6
CONTINUOUS
 62
    1
 10
52035.748999999996
 20
48419.673000000003
 11
53025.199999999997
 21
48419.673000000003
  0
LINE
  8
_0-3_____建築
  6
CONTINUOUS
 62
    1
 10
53024.748999999996
 20
48485.743999999999
 11
54014.200000000004
 21
48485.743999999999
  0
LINE
  8
_0-3_____建築
  6
CONTINUOUS
 62
    1
 10
54013.748999999996
 20
48551.813999999998
 11
55003.200000000004
 21
48551.813999999998
  0
LINE
  8
_0-3_____建築
  6
CONTINUOUS
 62
    1
 10
55002.748999999996
 20
48617.883999999998
 11
55992.200000000004
 21
48617.883999999998
  0
LINE
  8
_0-3_____建築
  6
CONTINUOUS
 62
    1
 10
55991.749000000003
 20
48683.953999999998
 11
56981.200000000004
 21
48683.953999999998
  0
LINE
  8
_0-3_____建築
  6
CONTINUOUS
 62
    1
 10
52035.748999999996
 20
48419.673000000003
 11
52036.199999999997
 21
48419.673000000003
  0
LINE
  8
_0-3_____建築
  6
CONTINUOUS
 62
    1
 10
52035.748999999996
 20
48485.743999999999
 11
53025.199999999997
 21
48485.743999999999
  0
LINE
  8
_0-3_____建築
  6
CONTINUOUS
 62
    1
 10
53024.748999999996
 20
48551.813999999998
 11
54014.200000000004
 21
48551.813999999998
  0
LINE
  8
_0-3_____建築
  6
CONTINUOUS
 62
    1
 10
54013.748999999996
 20
48617.883999999998
 11
55003.200000000004
 21
48617.883999999998
  0
LINE
  8
_0-3_____建築
  6
CONTINUOUS
 62
    1
 10
55002.748999999996
 20
48683.953999999998
 11
55992.200000000004
 21
48683.953999999998
  0
LINE
  8
_0-3_____建築
  6
CONTINUOUS
 62
    1
 10
52035.748999999996
 20
48485.743999999999
 11
52036.199999999997
 21
48485.743999999999
  0
LINE
  8
_0-3_____建築
  6
CONTINUOUS
 62
    1
 10
52035.748999999996
 20
48551.813999999998
 11
53025.199999999997
 21
48551.813999999998
  0
LINE
  8
_0-3_____建築
  6
CONTINUOUS
 62
    1
 10
53024.748999999996
 20
48617.883999999998
 11
54014.200000000004
 21
48617.883999999998
  0
LINE
  8
_0-3_____建築
  6
CONTINUOUS
 62
    1
 10
54013.748999999996
 20
48683.953999999998
 11
55003.200000000004
 21
48683.953999999998
  0
LINE
  8
_0-3_____建築
  6
CONTINUOUS
 62
    1
 10
52035.748999999996
 20
48551.813999999998
 11
52036.199999999997
 21
48551.813999999998
  0
LINE
  8
_0-3_____建築
  6
CONTINUOUS
 62
    1
 10
52035.748999999996
 20
48617.883999999998
 11
53025.199999999997
 21
48617.883999999998
  0
LINE
  8
_0-3_____建築
  6
CONTINUOUS
 62
    1
 10
53024.748999999996
 20
48683.953999999998
 11
54014.200000000004
 21
48683.953999999998
  0
LINE
  8
_0-3_____建築
  6
CONTINUOUS
 62
    1
 10
52035.748999999996
 20
48617.883999999998
 11
52036.199999999997
 21
48617.883999999998
  0
LINE
  8
_0-3_____建築
  6
CONTINUOUS
 62
    1
 10
52035.748999999996
 20
48683.953999999998
 11
53025.199999999997
 21
48683.953999999998
  0
LINE
  8
_0-3_____建築
  6
CONTINUOUS
 62
    1
 10
52035.748999999996
 20
48683.953999999998
 11
52036.199999999997
 21
48683.953999999998
  0
LINE
  8
_0-3_____建築
  6
CONTINUOUS
 62
    1
 10
57969.749000000003
 20
48089.323000000004
 11
58717.251999999993
 21
48089.323000000004
  0
LINE
  8
_0-3_____建築
  6
CONTINUOUS
 62
    1
 10
56980.749000000003
 20
48089.323000000004
 11
57970.199999999997
 21
48089.323000000004
  0
LINE
  8
_0-3_____建築
  6
CONTINUOUS
 62
    1
 10
57969.749000000003
 20
48155.392999999996
 11
58717.251999999993
 21
48155.392999999996
  0
LINE
  8
_0-3_____建築
  6
CONTINUOUS
 62
    1
 10
55991.749000000003
 20
48089.323000000004
 11
56981.200000000004
 21
48089.323000000004
  0
LINE
  8
_0-3_____建築
  6
CONTINUOUS
 62
    1
 10
56980.749000000003
 20
48155.392999999996
 11
57970.199999999997
 21
48155.392999999996
  0
LINE
  8
_0-3_____建築
  6
CONTINUOUS
 62
    1
 10
57969.749000000003
 20
48221.463000000003
 11
58717.251999999993
 21
48221.463000000003
  0
LINE
  8
_0-3_____建築
  6
CONTINUOUS
 62
    1
 10
55002.748999999996
 20
48089.323000000004
 11
55992.200000000004
 21
48089.323000000004
  0
LINE
  8
_0-3_____建築
  6
CONTINUOUS
 62
    1
 10
55991.749000000003
 20
48155.392999999996
 11
56981.200000000004
 21
48155.392999999996
  0
LINE
  8
_0-3_____建築
  6
CONTINUOUS
 62
    1
 10
56980.749000000003
 20
48221.463000000003
 11
57970.199999999997
 21
48221.463000000003
  0
LINE
  8
_0-3_____建築
  6
CONTINUOUS
 62
    1
 10
57969.749000000003
 20
48287.533000000003
 11
58717.251999999993
 21
48287.533000000003
  0
LINE
  8
_0-3_____建築
  6
CONTINUOUS
 62
    1
 10
54013.748999999996
 20
48089.323000000004
 11
55003.200000000004
 21
48089.323000000004
  0
LINE
  8
_0-3_____建築
  6
CONTINUOUS
 62
    1
 10
55002.748999999996
 20
48155.392999999996
 11
55992.200000000004
 21
48155.392999999996
  0
LINE
  8
_0-3_____建築
  6
CONTINUOUS
 62
    1
 10
55991.749000000003
 20
48221.463000000003
 11
56981.200000000004
 21
48221.463000000003
  0
LINE
  8
_0-3_____建築
  6
CONTINUOUS
 62
    1
 10
56980.749000000003
 20
48287.533000000003
 11
57970.199999999997
 21
48287.533000000003
  0
LINE
  8
_0-3_____建築
  6
CONTINUOUS
 62
    1
 10
57969.749000000003
 20
48353.602999999996
 11
58717.251999999993
 21
48353.602999999996
  0
LINE
  8
_0-3_____建築
  6
CONTINUOUS
 62
    1
 10
53024.748999999996
 20
48089.323000000004
 11
54014.200000000004
 21
48089.323000000004
  0
LINE
  8
_0-3_____建築
  6
CONTINUOUS
 62
    1
 10
54013.748999999996
 20
48155.392999999996
 11
55003.200000000004
 21
48155.392999999996
  0
LINE
  8
_0-3_____建築
  6
CONTINUOUS
 62
    1
 10
55002.748999999996
 20
48221.463000000003
 11
55992.200000000004
 21
48221.463000000003
  0
LINE
  8
_0-3_____建築
  6
CONTINUOUS
 62
    1
 10
55991.749000000003
 20
48287.533000000003
 11
56981.200000000004
 21
48287.533000000003
  0
LINE
  8
_0-3_____建築
  6
CONTINUOUS
 62
    1
 10
56980.749000000003
 20
48353.602999999996
 11
57970.199999999997
 21
48353.602999999996
  0
LINE
  8
_0-3_____建築
  6
CONTINUOUS
 62
    1
 10
57969.749000000003
 20
48419.673000000003
 11
58717.251999999993
 21
48419.673000000003
  0
LINE
  8
_0-3_____建築
  6
CONTINUOUS
 62
    1
 10
52035.748999999996
 20
48089.323000000004
 11
53025.199999999997
 21
48089.323000000004
  0
LINE
  8
_0-3_____建築
  6
CONTINUOUS
 62
    1
 10
53024.748999999996
 20
48155.392999999996
 11
54014.200000000004
 21
48155.392999999996
  0
LINE
  8
_0-3_____建築
  6
CONTINUOUS
 62
    1
 10
54013.748999999996
 20
48221.463000000003
 11
55003.200000000004
 21
48221.463000000003
  0
LINE
  8
_0-3_____建築
  6
CONTINUOUS
 62
    1
 10
55002.748999999996
 20
48287.533000000003
 11
55992.200000000004
 21
48287.533000000003
  0
LINE
  8
_0-3_____建築
  6
CONTINUOUS
 62
    1
 10
55991.749000000003
 20
48353.602999999996
 11
56981.200000000004
 21
48353.602999999996
  0
LINE
  8
_0-3_____建築
  6
CONTINUOUS
 62
    1
 10
56980.749000000003
 20
48419.673000000003
 11
57970.199999999997
 21
48419.673000000003
  0
LINE
  8
_0-3_____建築
  6
CONTINUOUS
 62
    1
 10
57969.749000000003
 20
48485.743999999999
 11
58717.251999999993
 21
48485.743999999999
  0
LINE
  8
_0-3_____建築
  6
CONTINUOUS
 62
    1
 10
52035.748999999996
 20
48089.323000000004
 11
52036.199999999997
 21
48089.323000000004
  0
LINE
  8
_0-3_____建築
  6
CONTINUOUS
 62
    1
 10
52035.748999999996
 20
48155.392999999996
 11
53025.199999999997
 21
48155.392999999996
  0
LINE
  8
_0-3_____建築
  6
CONTINUOUS
 62
    1
 10
53024.748999999996
 20
48221.463000000003
 11
54014.200000000004
 21
48221.463000000003
  0
LINE
  8
_0-3_____建築
  6
CONTINUOUS
 62
    1
 10
54013.748999999996
 20
48287.533000000003
 11
55003.200000000004
 21
48287.533000000003
  0
LINE
  8
_0-3_____建築
  6
CONTINUOUS
 62
    1
 10
55002.748999999996
 20
48353.602999999996
 11
55992.200000000004
 21
48353.602999999996
  0
LINE
  8
_0-3_____建築
  6
CONTINUOUS
 62
    1
 10
55991.749000000003
 20
48419.673000000003
 11
56981.200000000004
 21
48419.673000000003
  0
LINE
  8
_0-3_____建築
  6
CONTINUOUS
 62
    1
 10
56980.749000000003
 20
48485.743999999999
 11
57970.199999999997
 21
48485.743999999999
  0
LINE
  8
_0-3_____建築
  6
CONTINUOUS
 62
    1
 10
57969.749000000003
 20
48551.813999999998
 11
58717.251999999993
 21
48551.813999999998
  0
LINE
  8
_0-3_____建築
  6
CONTINUOUS
 62
    1
 10
52035.748999999996
 20
48155.392999999996
 11
52036.199999999997
 21
48155.392999999996
  0
LINE
  8
_0-3_____建築
  6
CONTINUOUS
 62
    1
 10
52035.748999999996
 20
48221.463000000003
 11
53025.199999999997
 21
48221.463000000003
  0
LINE
  8
_0-3_____建築
  6
CONTINUOUS
 62
    1
 10
53024.748999999996
 20
48287.533000000003
 11
54014.200000000004
 21
48287.533000000003
  0
LINE
  8
_0-3_____建築
  6
CONTINUOUS
 62
    1
 10
54013.748999999996
 20
48353.602999999996
 11
55003.200000000004
 21
48353.602999999996
  0
LINE
  8
_0-3_____建築
  6
CONTINUOUS
 62
    1
 10
55002.748999999996
 20
48419.673000000003
 11
55992.200000000004
 21
48419.673000000003
  0
LINE
  8
_0-3_____建築
  6
CONTINUOUS
 62
    1
 10
55991.749000000003
 20
48485.743999999999
 11
56981.200000000004
 21
48485.743999999999
  0
LINE
  8
_0-3_____建築
  6
CONTINUOUS
 62
    1
 10
56980.749000000003
 20
48551.813999999998
 11
57970.199999999997
 21
48551.813999999998
  0
LINE
  8
_0-3_____建築
  6
CONTINUOUS
 62
    1
 10
57969.749000000003
 20
48617.883999999998
 11
58717.251999999993
 21
48617.883999999998
  0
LINE
  8
_0-3_____建築
  6
CONTINUOUS
 62
    1
 10
52035.748999999996
 20
48221.463000000003
 11
52036.199999999997
 21
48221.463000000003
  0
LINE
  8
_0-3_____建築
  6
CONTINUOUS
 62
    1
 10
52035.748999999996
 20
48287.533000000003
 11
53025.199999999997
 21
48287.533000000003
  0
LINE
  8
_0-3_____建築
  6
CONTINUOUS
 62
    1
 10
53024.748999999996
 20
48353.602999999996
 11
54014.200000000004
 21
48353.602999999996
  0
LINE
  8
_0-3_____建築
  6
CONTINUOUS
 62
    1
 10
54013.748999999996
 20
48419.673000000003
 11
55003.200000000004
 21
48419.673000000003
  0
LINE
  8
_0-3_____建築
  6
CONTINUOUS
 62
    1
 10
55002.748999999996
 20
48485.743999999999
 11
55992.200000000004
 21
48485.743999999999
  0
LINE
  8
_0-3_____建築
  6
CONTINUOUS
 62
    1
 10
55991.749000000003
 20
48551.813999999998
 11
56981.200000000004
 21
48551.813999999998
  0
LINE
  8
_0-3_____建築
  6
CONTINUOUS
 62
    1
 10
56980.749000000003
 20
48617.883999999998
 11
57970.199999999997
 21
48617.883999999998
  0
LINE
  8
_0-3_____建築
  6
CONTINUOUS
 62
    1
 10
57969.749000000003
 20
48683.953999999998
 11
58717.251999999993
 21
48683.953999999998
  0
LINE
  8
_0-3_____建築
  6
CONTINUOUS
 62
    1
 10
52035.748999999996
 20
48287.533000000003
 11
52036.199999999997
 21
48287.533000000003
  0
LINE
  8
_0-3_____建築
  6
CONTINUOUS
 62
    1
 10
52035.748999999996
 20
48353.602999999996
 11
53025.199999999997
 21
48353.602999999996
  0
LINE
  8
_0-3_____建築
  6
CONTINUOUS
 62
    1
 10
53024.748999999996
 20
48419.673000000003
 11
54014.200000000004
 21
48419.673000000003
  0
LINE
  8
_0-3_____建築
  6
CONTINUOUS
 62
    1
 10
54013.748999999996
 20
48485.743999999999
 11
55003.200000000004
 21
48485.743999999999
  0
LINE
  8
_0-3_____建築
  6
CONTINUOUS
 62
    1
 10
55002.748999999996
 20
48551.813999999998
 11
55992.200000000004
 21
48551.813999999998
  0
LINE
  8
_0-3_____建築
  6
CONTINUOUS
 62
    1
 10
55991.749000000003
 20
48617.883999999998
 11
56981.200000000004
 21
48617.883999999998
  0
LINE
  8
_0-3_____建築
  6
CONTINUOUS
 62
    1
 10
56980.749000000003
 20
48683.953999999998
 11
57970.199999999997
 21
48683.953999999998
  0
LINE
  8
_0-3_____建築
  6
CONTINUOUS
 62
    1
 10
52035.748999999996
 20
48353.602999999996
 11
52036.199999999997
 21
48353.602999999996
  0
LINE
  8
_0-3_____建築
  6
CONTINUOUS
 62
    1
 10
52035.748999999996
 20
48419.673000000003
 11
53025.199999999997
 21
48419.673000000003
  0
LINE
  8
_0-3_____建築
  6
CONTINUOUS
 62
    1
 10
53024.748999999996
 20
48485.743999999999
 11
54014.200000000004
 21
48485.743999999999
  0
LINE
  8
_0-3_____建築
  6
CONTINUOUS
 62
    1
 10
54013.748999999996
 20
48551.813999999998
 11
55003.200000000004
 21
48551.813999999998
  0
LINE
  8
_0-3_____建築
  6
CONTINUOUS
 62
    1
 10
55002.748999999996
 20
48617.883999999998
 11
55992.200000000004
 21
48617.883999999998
  0
LINE
  8
_0-3_____建築
  6
CONTINUOUS
 62
    1
 10
55991.749000000003
 20
48683.953999999998
 11
56981.200000000004
 21
48683.953999999998
  0
LINE
  8
_0-3_____建築
  6
CONTINUOUS
 62
    1
 10
52035.748999999996
 20
48419.673000000003
 11
52036.199999999997
 21
48419.673000000003
  0
LINE
  8
_0-3_____建築
  6
CONTINUOUS
 62
    1
 10
52035.748999999996
 20
48485.743999999999
 11
53025.199999999997
 21
48485.743999999999
  0
LINE
  8
_0-3_____建築
  6
CONTINUOUS
 62
    1
 10
53024.748999999996
 20
48551.813999999998
 11
54014.200000000004
 21
48551.813999999998
  0
LINE
  8
_0-3_____建築
  6
CONTINUOUS
 62
    1
 10
54013.748999999996
 20
48617.883999999998
 11
55003.200000000004
 21
48617.883999999998
  0
LINE
  8
_0-3_____建築
  6
CONTINUOUS
 62
    1
 10
55002.748999999996
 20
48683.953999999998
 11
55992.200000000004
 21
48683.953999999998
  0
LINE
  8
_0-3_____建築
  6
CONTINUOUS
 62
    1
 10
52035.748999999996
 20
48485.743999999999
 11
52036.199999999997
 21
48485.743999999999
  0
LINE
  8
_0-3_____建築
  6
CONTINUOUS
 62
    1
 10
52035.748999999996
 20
48551.813999999998
 11
53025.199999999997
 21
48551.813999999998
  0
LINE
  8
_0-3_____建築
  6
CONTINUOUS
 62
    1
 10
53024.748999999996
 20
48617.883999999998
 11
54014.200000000004
 21
48617.883999999998
  0
LINE
  8
_0-3_____建築
  6
CONTINUOUS
 62
    1
 10
54013.748999999996
 20
48683.953999999998
 11
55003.200000000004
 21
48683.953999999998
  0
LINE
  8
_0-3_____建築
  6
CONTINUOUS
 62
    1
 10
52035.748999999996
 20
48551.813999999998
 11
52036.199999999997
 21
48551.813999999998
  0
LINE
  8
_0-3_____建築
  6
CONTINUOUS
 62
    1
 10
52035.748999999996
 20
48617.883999999998
 11
53025.199999999997
 21
48617.883999999998
  0
LINE
  8
_0-3_____建築
  6
CONTINUOUS
 62
    1
 10
53024.748999999996
 20
48683.953999999998
 11
54014.200000000004
 21
48683.953999999998
  0
LINE
  8
_0-3_____建築
  6
CONTINUOUS
 62
    1
 10
52035.748999999996
 20
48617.883999999998
 11
52036.199999999997
 21
48617.883999999998
  0
LINE
  8
_0-3_____建築
  6
CONTINUOUS
 62
    1
 10
52035.748999999996
 20
48683.953999999998
 11
53025.199999999997
 21
48683.953999999998
  0
LINE
  8
_0-3_____建築
  6
CONTINUOUS
 62
    1
 10
52035.748999999996
 20
48683.953999999998
 11
52036.199999999997
 21
48683.953999999998
  0
LINE
  8
_0-3_____建築
  6
CONTINUOUS
 62
    3
 10
58717.251999999993
 20
48697.822
 11
58462.252
 21
48697.822
  0
LINE
  8
_0-3_____建築
  6
CONTINUOUS
 62
    3
 10
58312.252
 20
48697.822
 11
58297.252
 21
48697.822
  0
LINE
  8
_0-3_____建築
  6
CONTINUOUS
 62
    3
 10
58462.252
 20
48697.822
 11
58312.252
 21
48697.822
  0
LINE
  8
_0-3_____建築
  6
CONTINUOUS
 62
    3
 10
58297.252
 20
48697.822
 11
52035.748999999996
 21
48697.822
  0
LINE
  8
_0-3_____建築
  6
CONTINUOUS
 62
    3
 10
58717.251999999993
 20
48089.323000000004
 11
58717.251999999993
 21
48697.822
  0
LINE
  8
_0-3_____建築
  6
CONTINUOUS
 62
    3
 10
58717.251999999993
 20
48046.473000000005
 11
58717.251999999993
 21
48089.323000000004
  0
LINE
  8
_0-3_____建築
  6
CONTINUOUS
 62
    3
 10
52035.748999999996
 20
48089.323000000004
 11
58717.251999999993
 21
48089.323000000004
  0
LINE
  8
_0-3_____建築
  6
CONTINUOUS
 62
    3
 10
58717.251999999993
 20
48046.473000000005
 11
52035.748999999996
 21
48046.473000000005
  0
LINE
  8
_0-3_____建築
  6
CONTINUOUS
 62
    3
 10
52035.748999999996
 20
48046.473000000005
 11
52035.748999999996
 21
48089.323000000004
  0
LINE
  8
_0-3_____建築
  6
CONTINUOUS
 62
    3
 10
58687.252
 20
47863.798999999999
 11
58687.252
 21
48046.473000000005
  0
LINE
  8
_0-3_____建築
  6
CONTINUOUS
 62
    3
 10
58687.252
 20
47863.798999999999
 11
52035.748999999996
 21
47863.798999999999
  0
LINE
  8
_0-3_____建築
  6
CONTINUOUS
 62
    3
 10
52035.748999999996
 20
47863.798999999999
 11
52035.748999999996
 21
48046.473000000005
  0
LINE
  8
_0-3_____建築
  6
CONTINUOUS
 62
    3
 10
48559.252
 20
48311.468000000001
 11
48559.252
 21
48311.133999999998
  0
LINE
  8
_0-3_____建築
  6
CONTINUOUS
 62
    3
 10
48559.252
 20
48311.468000000001
 11
52304.214999999997
 21
50558.654000000002
  0
LINE
  8
_0-3_____建築
  6
CONTINUOUS
 62
    3
 10
52304.214999999997
 20
50558.654000000002
 11
52304.214999999997
 21
50557.75
  0
LINE
  8
_0-3_____建築
  6
CONTINUOUS
 62
    3
 10
58487.252
 20
47330.749000000003
 11
58687.252
 21
47330.749000000003
  0
LINE
  8
_0-3_____建築
  6
CONTINUOUS
 62
    3
 10
52304.214999999997
 20
50558.654000000002
 11
58687.252
 21
50558.654000000002
  0
LINE
  8
_0-3_____建築
  6
CONTINUOUS
 62
    3
 10
58687.252
 20
50558.654000000002
 11
58687.252
 21
50365.654000000002
  0
LINE
  8
_0-3_____建築
  6
CONTINUOUS
 62
    3
 10
58687.252
 20
50365.654000000002
 11
52304.214999999997
 21
50365.654000000002
  0
LINE
  8
_0-3_____建築
  6
CONTINUOUS
 62
    3
 10
58687.252
 20
47330.749000000003
 11
58687.252
 21
47863.798999999999
  0
LINE
  8
_0-3_____建築
  6
CONTINUOUS
 62
    3
 10
58687.252
 20
48697.822
 11
58687.252
 21
50365.654000000002
  0
LINE
  8
_0-3_____建築
  6
CONTINUOUS
 62
    3
 10
52304.214999999997
 20
50364.75
 11
52304.214999999997
 21
50557.75
  0
LINE
  8
_0-3_____建築
  6
CONTINUOUS
 62
    3
 10
48129.251999999993
 20
48053.175999999999
 11
52304.214999999997
 21
50557.75
  0
LINE
  8
_0-3_____建築
  6
CONTINUOUS
 62
    3
 10
52304.214999999997
 20
50364.75
 11
48129.251999999993
 21
47860.175999999999
  0
LINE
  8
_0-3_____建築
  6
CONTINUOUS
 62
    3
 10
48129.251999999993
 20
47860.175999999999
 11
48129.251999999993
 21
48053.175999999999
  0
LINE
  8
_0-3_____建築
  6
CONTINUOUS
 62
    3
 10
58487.252
 20
43498.910000000003
 11
58487.252
 21
44681.900000000001
  0
LINE
  8
_0-3_____建築
  6
CONTINUOUS
 62
    3
 10
58462.252
 20
43498.910000000003
 11
58487.252
 21
43498.910000000003
  0
LINE
  8
_0-3_____建築
  6
CONTINUOUS
 62
    3
 10
58487.252
 20
44681.900000000001
 11
58512.252
 21
44681.900000000001
  0
LINE
  8
_0-3_____建築
  6
CONTINUOUS
 62
    3
 10
58462.252
 20
44681.900000000001
 11
58487.252
 21
44681.900000000001
  0
LINE
  8
_0-3_____建築
  6
CONTINUOUS
 62
    3
 10
58512.252
 20
44681.900000000001
 11
58542.251999999993
 21
44765.233999999997
  0
LINE
  8
_0-3_____建築
  6
CONTINUOUS
 62
    3
 10
58542.251999999993
 20
44765.233999999997
 11
58542.251999999993
 21
44898.567000000003
  0
LINE
  8
_0-3_____建築
  6
CONTINUOUS
 62
    3
 10
58542.251999999993
 20
44898.567000000003
 11
58462.252
 21
44931.900000000001
  0
LINE
  8
_0-3_____建築
  6
CONTINUOUS
 62
    3
 10
55779.078999999998
 20
47577.243000000002
 11
55779.078999999998
 21
46582.366000000002
  0
LINE
  8
_0-3_____建築
  6
CONTINUOUS
 62
    3
 10
55779.078999999998
 20
46541.991999999998
 11
55779.078999999998
 21
46459.491999999998
  0
LINE
  8
_0-3_____建築
  6
CONTINUOUS
 62
    3
 10
55779.078999999998
 20
46429.491999999998
 11
55779.078999999998
 21
46361.991999999998
  0
LINE
  8
_0-3_____建築
  6
CONTINUOUS
 62
    3
 10
55779.078999999998
 20
46331.992000000006
 11
55779.078999999998
 21
46264.491999999998
  0
LINE
  8
_0-3_____建築
  6
CONTINUOUS
 62
    3
 10
55779.078999999998
 20
46234.491999999998
 11
55779.078999999998
 21
46171
  0
LINE
  8
_0-3_____建築
  6
CONTINUOUS
 62
    3
 10
55729.078999999998
 20
46171
 11
55729.078999999998
 21
46234.491999999998
  0
LINE
  8
_0-3_____建築
  6
CONTINUOUS
 62
    3
 10
55729.078999999998
 20
46264.491999999998
 11
55729.078999999998
 21
46331.992000000006
  0
LINE
  8
_0-3_____建築
  6
CONTINUOUS
 62
    3
 10
55729.078999999998
 20
46361.991999999998
 11
55729.078999999998
 21
46429.491999999998
  0
LINE
  8
_0-3_____建築
  6
CONTINUOUS
 62
    3
 10
55729.078999999998
 20
46459.491999999998
 11
55729.078999999998
 21
46541.991999999998
  0
LINE
  8
_0-3_____建築
  6
CONTINUOUS
 62
    3
 10
55729.078999999998
 20
46582.366000000002
 11
55729.078999999998
 21
47527.243000000002
  0
LINE
  8
_0-3_____建築
  6
CONTINUOUS
 62
    3
 10
55729.078999999998
 20
47527.243000000002
 11
55024.974999999991
 21
47527.243000000002
  0
LINE
  8
_0-3_____建築
  6
CONTINUOUS
 62
    3
 10
55024.974999999991
 20
47527.243000000002
 11
55024.974999999991
 21
46582.366000000002
  0
LINE
  8
_0-3_____建築
  6
CONTINUOUS
 62
    3
 10
55024.974999999991
 20
46541.991999999998
 11
55024.974999999991
 21
46459.491999999998
  0
LINE
  8
_0-3_____建築
  6
CONTINUOUS
 62
    3
 10
55024.974999999991
 20
46429.491999999998
 11
55024.974999999991
 21
46361.991999999998
  0
LINE
  8
_0-3_____建築
  6
CONTINUOUS
 62
    3
 10
55024.974999999991
 20
46331.992000000006
 11
55024.974999999991
 21
46264.491999999998
  0
LINE
  8
_0-3_____建築
  6
CONTINUOUS
 62
    3
 10
55024.974999999991
 20
46234.491999999998
 11
55024.974999999991
 21
46171
  0
LINE
  8
_0-3_____建築
  6
CONTINUOUS
 62
    3
 10
56483.182999999997
 20
46171
 11
56483.182999999997
 21
46234.491999999998
  0
LINE
  8
_0-3_____建築
  6
CONTINUOUS
 62
    3
 10
56483.182999999997
 20
46264.491999999998
 11
56483.182999999997
 21
46331.992000000006
  0
LINE
  8
_0-3_____建築
  6
CONTINUOUS
 62
    3
 10
56483.182999999997
 20
46361.991999999998
 11
56483.182999999997
 21
46429.491999999998
  0
LINE
  8
_0-3_____建築
  6
CONTINUOUS
 62
    3
 10
56483.182999999997
 20
46459.491999999998
 11
56483.182999999997
 21
46541.991999999998
  0
LINE
  8
_0-3_____建築
  6
CONTINUOUS
 62
    3
 10
56483.182999999997
 20
46582.366000000002
 11
56483.182999999997
 21
47527.243000000002
  0
LINE
  8
_0-3_____建築
  6
CONTINUOUS
 62
    3
 10
56483.182999999997
 20
47527.243000000002
 11
55779.078999999998
 21
47527.243000000002
  0
LINE
  8
_0-3_____建築
  6
CONTINUOUS
 62
    3
 10
56583.182999999997
 20
47627.243000000002
 11
56583.182999999997
 21
46582.366000000002
  0
LINE
  8
_0-3_____建築
  6
CONTINUOUS
 62
    3
 10
56583.182999999997
 20
46541.991999999998
 11
56583.182999999997
 21
46459.491999999998
  0
LINE
  8
_0-3_____建築
  6
CONTINUOUS
 62
    3
 10
56583.182999999997
 20
46429.491999999998
 11
56583.182999999997
 21
46361.991999999998
  0
LINE
  8
_0-3_____建築
  6
CONTINUOUS
 62
    3
 10
56583.182999999997
 20
46331.992000000006
 11
56583.182999999997
 21
46264.491999999998
  0
LINE
  8
_0-3_____建築
  6
CONTINUOUS
 62
    3
 10
56583.182999999997
 20
46234.491999999998
 11
56583.182999999997
 21
46171
  0
LINE
  8
_0-3_____建築
  6
CONTINUOUS
 62
    3
 10
54924.974999999991
 20
46171
 11
54924.974999999991
 21
46234.491999999998
  0
LINE
  8
_0-3_____建築
  6
CONTINUOUS
 62
    3
 10
54924.974999999991
 20
46264.491999999998
 11
54924.974999999991
 21
46331.992000000006
  0
LINE
  8
_0-3_____建築
  6
CONTINUOUS
 62
    3
 10
54924.974999999991
 20
46361.991999999998
 11
54924.974999999991
 21
46429.491999999998
  0
LINE
  8
_0-3_____建築
  6
CONTINUOUS
 62
    3
 10
54924.974999999991
 20
46459.491999999998
 11
54924.974999999991
 21
46541.991999999998
  0
LINE
  8
_0-3_____建築
  6
CONTINUOUS
 62
    3
 10
54924.974999999991
 20
46582.366000000002
 11
54924.974999999991
 21
47627.243000000002
  0
LINE
  8
_0-3_____建築
  6
CONTINUOUS
 62
    3
 10
54924.974999999991
 20
47627.243000000002
 11
56583.182999999997
 21
47627.243000000002
  0
LINE
  8
_0-3_____建築
  6
CONTINUOUS
 62
    3
 10
56533.182999999997
 20
46171
 11
56533.182999999997
 21
46234.491999999998
  0
LINE
  8
_0-3_____建築
  6
CONTINUOUS
 62
    3
 10
56533.182999999997
 20
46264.491999999998
 11
56533.182999999997
 21
46331.992000000006
  0
LINE
  8
_0-3_____建築
  6
CONTINUOUS
 62
    3
 10
56533.182999999997
 20
46361.991999999998
 11
56533.182999999997
 21
46429.491999999998
  0
LINE
  8
_0-3_____建築
  6
CONTINUOUS
 62
    3
 10
56533.182999999997
 20
46459.491999999998
 11
56533.182999999997
 21
46541.991999999998
  0
LINE
  8
_0-3_____建築
  6
CONTINUOUS
 62
    3
 10
56533.182999999997
 20
46582.366000000002
 11
56533.182999999997
 21
47577.243000000002
  0
LINE
  8
_0-3_____建築
  6
CONTINUOUS
 62
    3
 10
56533.182999999997
 20
47577.243000000002
 11
54974.974999999991
 21
47577.243000000002
  0
LINE
  8
_0-3_____建築
  6
CONTINUOUS
 62
    3
 10
54974.974999999991
 20
47577.243000000002
 11
54974.974999999991
 21
46582.366000000002
  0
LINE
  8
_0-3_____建築
  6
CONTINUOUS
 62
    3
 10
54974.974999999991
 20
46541.991999999998
 11
54974.974999999991
 21
46459.491999999998
  0
LINE
  8
_0-3_____建築
  6
CONTINUOUS
 62
    3
 10
54974.974999999991
 20
46429.491999999998
 11
54974.974999999991
 21
46361.991999999998
  0
LINE
  8
_0-3_____建築
  6
CONTINUOUS
 62
    3
 10
54974.974999999991
 20
46331.992000000006
 11
54974.974999999991
 21
46264.491999999998
  0
LINE
  8
_0-3_____建築
  6
CONTINUOUS
 62
    3
 10
54974.974999999991
 20
46234.491999999998
 11
54974.974999999991
 21
46171
  0
LINE
  8
_0-3_____建築
  6
CONTINUOUS
 62
    3
 10
56614.084000000003
 20
44631.900000000001
 11
56614.084000000003
 21
42638.917999999998
  0
LINE
  8
_0-3_____建築
  6
CONTINUOUS
 62
    3
 10
56564.084000000003
 20
42688.917999999998
 11
56564.084000000003
 21
44581.900000000001
  0
LINE
  8
_0-3_____建築
  6
CONTINUOUS
 62
    3
 10
56564.084000000003
 20
44581.900000000001
 11
55839.756999999998
 21
44581.900000000001
  0
LINE
  8
_0-3_____建築
  6
CONTINUOUS
 62
    3
 10
55839.756999999998
 20
44581.900000000001
 11
55839.756999999998
 21
42688.917999999998
  0
LINE
  8
_0-3_____建築
  6
CONTINUOUS
 62
    3
 10
55839.756999999998
 20
42688.917999999998
 11
56564.084000000003
 21
42688.917999999998
  0
LINE
  8
_0-3_____建築
  6
CONTINUOUS
 62
    3
 10
57338.409999999996
 20
42688.917999999998
 11
57338.409999999996
 21
44581.900000000001
  0
LINE
  8
_0-3_____建築
  6
CONTINUOUS
 62
    3
 10
57338.409999999996
 20
44581.900000000001
 11
56614.084000000003
 21
44581.900000000001
  0
LINE
  8
_0-3_____建築
  6
CONTINUOUS
 62
    3
 10
56614.084000000003
 20
42688.917999999998
 11
57338.409999999996
 21
42688.917999999998
  0
LINE
  8
_0-3_____建築
  6
CONTINUOUS
 62
    3
 10
57438.409999999996
 20
44681.900000000001
 11
57438.409999999996
 21
42588.917999999998
  0
LINE
  8
_0-3_____建築
  6
CONTINUOUS
 62
    3
 10
57438.409999999996
 20
42588.917999999998
 11
55739.756999999998
 21
42588.917999999998
  0
LINE
  8
_0-3_____建築
  6
CONTINUOUS
 62
    3
 10
55739.756999999998
 20
42588.917999999998
 11
55739.756999999998
 21
44681.900000000001
  0
LINE
  8
_0-3_____建築
  6
CONTINUOUS
 62
    3
 10
57388.409999999996
 20
42638.917999999998
 11
57388.409999999996
 21
44631.900000000001
  0
LINE
  8
_0-3_____建築
  6
CONTINUOUS
 62
    3
 10
57388.409999999996
 20
44631.900000000001
 11
55789.756999999998
 21
44631.900000000001
  0
LINE
  8
_0-3_____建築
  6
CONTINUOUS
 62
    3
 10
55789.756999999998
 20
44631.900000000001
 11
55789.756999999998
 21
42638.917999999998
  0
LINE
  8
_0-3_____建築
  6
CONTINUOUS
 62
    3
 10
55789.756999999998
 20
42638.917999999998
 11
57388.409999999996
 21
42638.917999999998
  0
LINE
  8
_0-3_____建築
  6
CONTINUOUS
 62
    3
 10
55739.756999999998
 20
44681.900000000001
 11
55739.756999999998
 21
44765.233999999997
  0
LINE
  8
_0-3_____建築
  6
CONTINUOUS
 62
    3
 10
55739.756999999998
 20
44765.233999999997
 11
55739.756999999998
 21
44898.567000000003
  0
LINE
  8
_0-3_____建築
  6
CONTINUOUS
 62
    3
 10
55739.756999999998
 20
44898.567000000003
 11
55739.756999999998
 21
44931.900000000001
  0
LINE
  8
_0-3_____建築
  6
CONTINUOUS
 62
    3
 10
57438.409999999996
 20
44681.900000000001
 11
57438.409999999996
 21
44765.233999999997
  0
LINE
  8
_0-3_____建築
  6
CONTINUOUS
 62
    3
 10
57438.409999999996
 20
44765.233999999997
 11
57438.409999999996
 21
44898.567000000003
  0
LINE
  8
_0-3_____建築
  6
CONTINUOUS
 62
    3
 10
57438.409999999996
 20
44898.567000000003
 11
57438.409999999996
 21
44931.900000000001
  0
LINE
  8
_0-3_____建築
  6
CONTINUOUS
 62
    3
 10
55739.756999999998
 20
44681.900000000001
 11
57438.409999999996
 21
44681.900000000001
  0
LINE
  8
_0-3_____建築
  6
CONTINUOUS
 62
    3
 10
55739.756999999998
 20
44765.233999999997
 11
57438.409999999996
 21
44765.233999999997
  0
LINE
  8
_0-3_____建築
  6
CONTINUOUS
 62
    3
 10
55739.756999999998
 20
44898.567000000003
 11
57438.409999999996
 21
44898.567000000003
  0
LINE
  8
_0-3_____建築
  6
CONTINUOUS
 62
    3
 10
55739.756999999998
 20
44931.900000000001
 11
57438.409999999996
 21
44931.900000000001
  0
LINE
  8
_0-3_____建築
  6
CONTINUOUS
 62
    3
 10
50220.542000000001
 20
47577.243000000002
 11
50220.542000000001
 21
46582.366000000002
  0
LINE
  8
_0-3_____建築
  6
CONTINUOUS
 62
    3
 10
50220.542000000001
 20
46541.991999999998
 11
50220.542000000001
 21
46459.491999999998
  0
LINE
  8
_0-3_____建築
  6
CONTINUOUS
 62
    3
 10
50220.542000000001
 20
46429.491999999998
 11
50220.542000000001
 21
46361.991999999998
  0
LINE
  8
_0-3_____建築
  6
CONTINUOUS
 62
    3
 10
50220.542000000001
 20
46331.992000000006
 11
50220.542000000001
 21
46264.491999999998
  0
LINE
  8
_0-3_____建築
  6
CONTINUOUS
 62
    3
 10
50220.542000000001
 20
46234.491999999998
 11
50220.542000000001
 21
46171
  0
LINE
  8
_0-3_____建築
  6
CONTINUOUS
 62
    3
 10
50170.542000000001
 20
46171
 11
50170.542000000001
 21
46234.491999999998
  0
LINE
  8
_0-3_____建築
  6
CONTINUOUS
 62
    3
 10
50170.542000000001
 20
46264.491999999998
 11
50170.542000000001
 21
46331.992000000006
  0
LINE
  8
_0-3_____建築
  6
CONTINUOUS
 62
    3
 10
50170.542000000001
 20
46361.991999999998
 11
50170.542000000001
 21
46429.491999999998
  0
LINE
  8
_0-3_____建築
  6
CONTINUOUS
 62
    3
 10
50170.542000000001
 20
46459.491999999998
 11
50170.542000000001
 21
46541.991999999998
  0
LINE
  8
_0-3_____建築
  6
CONTINUOUS
 62
    3
 10
50170.542000000001
 20
46582.366000000002
 11
50170.542000000001
 21
47527.243000000002
  0
LINE
  8
_0-3_____建築
  6
CONTINUOUS
 62
    3
 10
50170.542000000001
 20
47527.243000000002
 11
49466.438000000002
 21
47527.243000000002
  0
LINE
  8
_0-3_____建築
  6
CONTINUOUS
 62
    3
 10
49466.438000000002
 20
47527.243000000002
 11
49466.438000000002
 21
46582.366000000002
  0
LINE
  8
_0-3_____建築
  6
CONTINUOUS
 62
    3
 10
49466.438000000002
 20
46541.991999999998
 11
49466.438000000002
 21
46459.491999999998
  0
LINE
  8
_0-3_____建築
  6
CONTINUOUS
 62
    3
 10
49466.438000000002
 20
46429.491999999998
 11
49466.438000000002
 21
46361.991999999998
  0
LINE
  8
_0-3_____建築
  6
CONTINUOUS
 62
    3
 10
49466.438000000002
 20
46331.992000000006
 11
49466.438000000002
 21
46264.491999999998
  0
LINE
  8
_0-3_____建築
  6
CONTINUOUS
 62
    3
 10
49466.438000000002
 20
46234.491999999998
 11
49466.438000000002
 21
46171
  0
LINE
  8
_0-3_____建築
  6
CONTINUOUS
 62
    3
 10
50924.646000000001
 20
46171
 11
50924.646000000001
 21
46234.491999999998
  0
LINE
  8
_0-3_____建築
  6
CONTINUOUS
 62
    3
 10
50924.646000000001
 20
46264.491999999998
 11
50924.646000000001
 21
46331.992000000006
  0
LINE
  8
_0-3_____建築
  6
CONTINUOUS
 62
    3
 10
50924.646000000001
 20
46361.991999999998
 11
50924.646000000001
 21
46429.491999999998
  0
LINE
  8
_0-3_____建築
  6
CONTINUOUS
 62
    3
 10
50924.646000000001
 20
46459.491999999998
 11
50924.646000000001
 21
46541.991999999998
  0
LINE
  8
_0-3_____建築
  6
CONTINUOUS
 62
    3
 10
50924.646000000001
 20
46582.366000000002
 11
50924.646000000001
 21
47527.243000000002
  0
LINE
  8
_0-3_____建築
  6
CONTINUOUS
 62
    3
 10
50924.646000000001
 20
47527.243000000002
 11
50220.542000000001
 21
47527.243000000002
  0
LINE
  8
_0-3_____建築
  6
CONTINUOUS
 62
    3
 10
51024.646000000001
 20
47627.243000000002
 11
51024.646000000001
 21
46582.366000000002
  0
LINE
  8
_0-3_____建築
  6
CONTINUOUS
 62
    3
 10
51024.646000000001
 20
46541.991999999998
 11
51024.646000000001
 21
46459.491999999998
  0
LINE
  8
_0-3_____建築
  6
CONTINUOUS
 62
    3
 10
51024.646000000001
 20
46429.491999999998
 11
51024.646000000001
 21
46361.991999999998
  0
LINE
  8
_0-3_____建築
  6
CONTINUOUS
 62
    3
 10
51024.646000000001
 20
46331.992000000006
 11
51024.646000000001
 21
46264.491999999998
  0
LINE
  8
_0-3_____建築
  6
CONTINUOUS
 62
    3
 10
51024.646000000001
 20
46234.491999999998
 11
51024.646000000001
 21
46171
  0
LINE
  8
_0-3_____建築
  6
CONTINUOUS
 62
    3
 10
49366.438000000002
 20
46171
 11
49366.438000000002
 21
46234.491999999998
  0
LINE
  8
_0-3_____建築
  6
CONTINUOUS
 62
    3
 10
49366.438000000002
 20
46264.491999999998
 11
49366.438000000002
 21
46331.992000000006
  0
LINE
  8
_0-3_____建築
  6
CONTINUOUS
 62
    3
 10
49366.438000000002
 20
46361.991999999998
 11
49366.438000000002
 21
46429.491999999998
  0
LINE
  8
_0-3_____建築
  6
CONTINUOUS
 62
    3
 10
49366.438000000002
 20
46459.491999999998
 11
49366.438000000002
 21
46541.991999999998
  0
LINE
  8
_0-3_____建築
  6
CONTINUOUS
 62
    3
 10
49366.438000000002
 20
46582.366000000002
 11
49366.438000000002
 21
47627.243000000002
  0
LINE
  8
_0-3_____建築
  6
CONTINUOUS
 62
    3
 10
49366.438000000002
 20
47627.243000000002
 11
51024.646000000001
 21
47627.243000000002
  0
LINE
  8
_0-3_____建築
  6
CONTINUOUS
 62
    3
 10
50974.646000000001
 20
46532.991999999998
 11
50974.646000000001
 21
46541.991999999998
  0
LINE
  8
_0-3_____建築
  6
CONTINUOUS
 62
    3
 10
50974.646000000001
 20
46582.366000000002
 11
50974.646000000001
 21
47577.243000000002
  0
LINE
  8
_0-3_____建築
  6
CONTINUOUS
 62
    3
 10
50974.646000000001
 20
47577.243000000002
 11
49416.438000000002
 21
47577.243000000002
  0
LINE
  8
_0-3_____建築
  6
CONTINUOUS
 62
    3
 10
49416.438000000002
 20
47577.243000000002
 11
49416.438000000002
 21
46582.366000000002
  0
LINE
  8
_0-3_____建築
  6
CONTINUOUS
 62
    3
 10
49416.438000000002
 20
46541.991999999998
 11
49416.438000000002
 21
46459.491999999998
  0
LINE
  8
_0-3_____建築
  6
CONTINUOUS
 62
    3
 10
49416.438000000002
 20
46429.491999999998
 11
49416.438000000002
 21
46361.991999999998
  0
LINE
  8
_0-3_____建築
  6
CONTINUOUS
 62
    3
 10
49416.438000000002
 20
46331.992000000006
 11
49416.438000000002
 21
46264.491999999998
  0
LINE
  8
_0-3_____建築
  6
CONTINUOUS
 62
    3
 10
49416.438000000002
 20
46234.491999999998
 11
49416.438000000002
 21
46171
  0
LINE
  8
_0-3_____建築
  6
CONTINUOUS
 62
    3
 10
50195.682000000001
 20
44631.900000000001
 11
50195.682000000001
 21
42731.900000000001
  0
LINE
  8
_0-3_____建築
  6
CONTINUOUS
 62
    3
 10
50145.682000000001
 20
42781.900000000001
 11
50145.682000000001
 21
44581.900000000001
  0
LINE
  8
_0-3_____建築
  6
CONTINUOUS
 62
    3
 10
50145.682000000001
 20
44581.900000000001
 11
49072.182000000001
 21
44581.900000000001
  0
LINE
  8
_0-3_____建築
  6
CONTINUOUS
 62
    3
 10
49072.182000000001
 20
44581.900000000001
 11
49072.182000000001
 21
42781.900000000001
  0
LINE
  8
_0-3_____建築
  6
CONTINUOUS
 62
    3
 10
49072.182000000001
 20
42781.900000000001
 11
50145.682000000001
 21
42781.900000000001
  0
LINE
  8
_0-3_____建築
  6
CONTINUOUS
 62
    3
 10
51269.182000000001
 20
42781.900000000001
 11
51269.182000000001
 21
44581.900000000001
  0
LINE
  8
_0-3_____建築
  6
CONTINUOUS
 62
    3
 10
51269.182000000001
 20
44581.900000000001
 11
50195.682000000001
 21
44581.900000000001
  0
LINE
  8
_0-3_____建築
  6
CONTINUOUS
 62
    3
 10
50195.682000000001
 20
42781.900000000001
 11
51269.182000000001
 21
42781.900000000001
  0
LINE
  8
_0-3_____建築
  6
CONTINUOUS
 62
    3
 10
51369.182000000001
 20
44681.900000000001
 11
51369.182000000001
 21
42681.900000000001
  0
LINE
  8
_0-3_____建築
  6
CONTINUOUS
 62
    3
 10
51369.182000000001
 20
42681.900000000001
 11
48972.182000000001
 21
42681.900000000001
  0
LINE
  8
_0-3_____建築
  6
CONTINUOUS
 62
    3
 10
48972.182000000001
 20
42681.900000000001
 11
48972.182000000001
 21
44681.900000000001
  0
LINE
  8
_0-3_____建築
  6
CONTINUOUS
 62
    3
 10
51319.182000000001
 20
42731.900000000001
 11
51319.182000000001
 21
44631.900000000001
  0
LINE
  8
_0-3_____建築
  6
CONTINUOUS
 62
    3
 10
51319.182000000001
 20
44631.900000000001
 11
49022.182000000001
 21
44631.900000000001
  0
LINE
  8
_0-3_____建築
  6
CONTINUOUS
 62
    3
 10
49022.182000000001
 20
44631.900000000001
 11
49022.182000000001
 21
42731.900000000001
  0
LINE
  8
_0-3_____建築
  6
CONTINUOUS
 62
    3
 10
49022.182000000001
 20
42731.900000000001
 11
51319.182000000001
 21
42731.900000000001
  0
LINE
  8
_0-3_____建築
  6
CONTINUOUS
 62
    3
 10
48972.182000000001
 20
44681.900000000001
 11
48972.182000000001
 21
44765.233999999997
  0
LINE
  8
_0-3_____建築
  6
CONTINUOUS
 62
    3
 10
48972.182000000001
 20
44765.233999999997
 11
48972.182000000001
 21
44898.567000000003
  0
LINE
  8
_0-3_____建築
  6
CONTINUOUS
 62
    3
 10
48972.182000000001
 20
44898.567000000003
 11
48972.182000000001
 21
44931.900000000001
  0
LINE
  8
_0-3_____建築
  6
CONTINUOUS
 62
    3
 10
51369.182000000001
 20
44681.900000000001
 11
51369.182000000001
 21
44765.233999999997
  0
LINE
  8
_0-3_____建築
  6
CONTINUOUS
 62
    3
 10
51369.182000000001
 20
44765.233999999997
 11
51369.182000000001
 21
44898.567000000003
  0
LINE
  8
_0-3_____建築
  6
CONTINUOUS
 62
    3
 10
51369.182000000001
 20
44898.567000000003
 11
51369.182000000001
 21
44931.900000000001
  0
LINE
  8
_0-3_____建築
  6
CONTINUOUS
 62
    3
 10
48972.182000000001
 20
44681.900000000001
 11
51369.182000000001
 21
44681.900000000001
  0
LINE
  8
_0-3_____建築
  6
CONTINUOUS
 62
    3
 10
48972.182000000001
 20
44765.233999999997
 11
51369.182000000001
 21
44765.233999999997
  0
LINE
  8
_0-3_____建築
  6
CONTINUOUS
 62
    3
 10
48972.182000000001
 20
44898.567000000003
 11
51369.182000000001
 21
44898.567000000003
  0
LINE
  8
_0-3_____建築
  6
CONTINUOUS
 62
    3
 10
48972.182000000001
 20
44931.900000000001
 11
51369.182000000001
 21
44931.900000000001
  0
LINE
  8
_0-3_____建築
  6
CONTINUOUS
 62
    3
 10
48246.919000000002
 20
44681.900000000001
 11
48246.919000000002
 21
43701.131000000001
  0
LINE
  8
_0-3_____建築
  6
CONTINUOUS
 62
    3
 10
48271.919000000002
 20
44681.900000000001
 11
48246.919000000002
 21
44681.900000000001
  0
LINE
  8
_0-3_____建築
  6
CONTINUOUS
 62
    3
 10
48271.919000000002
 20
43701.131000000001
 11
48246.919000000002
 21
43701.131000000001
  0
LINE
  8
_0-3_____建築
  6
CONTINUOUS
 62
    3
 10
53530.014999999999
 20
44539
 11
53530.014999999999
 21
42639
  0
LINE
  8
_0-3_____建築
  6
CONTINUOUS
 62
    3
 10
53480.014999999999
 20
42689
 11
53480.014999999999
 21
44489
  0
LINE
  8
_0-3_____建築
  6
CONTINUOUS
 62
    3
 10
53480.014999999999
 20
44489
 11
52406.514999999999
 21
44489
  0
LINE
  8
_0-3_____建築
  6
CONTINUOUS
 62
    3
 10
52406.514999999999
 20
44489
 11
52406.514999999999
 21
42689
  0
LINE
  8
_0-3_____建築
  6
CONTINUOUS
 62
    3
 10
52406.514999999999
 20
42689
 11
53480.014999999999
 21
42689
  0
LINE
  8
_0-3_____建築
  6
CONTINUOUS
 62
    3
 10
54603.515000000007
 20
42689
 11
54603.515000000007
 21
44489
  0
LINE
  8
_0-3_____建築
  6
CONTINUOUS
 62
    3
 10
54603.515000000007
 20
44489
 11
53530.014999999999
 21
44489
  0
LINE
  8
_0-3_____建築
  6
CONTINUOUS
 62
    3
 10
53530.014999999999
 20
42689
 11
54603.515000000007
 21
42689
  0
LINE
  8
_0-3_____建築
  6
CONTINUOUS
 62
    3
 10
54703.515000000007
 20
44589
 11
54703.515000000007
 21
42589
  0
LINE
  8
_0-3_____建築
  6
CONTINUOUS
 62
    3
 10
54703.515000000007
 20
42589
 11
52306.514999999999
 21
42589
  0
LINE
  8
_0-3_____建築
  6
CONTINUOUS
 62
    3
 10
52306.514999999999
 20
42589
 11
52306.514999999999
 21
44589
  0
LINE
  8
_0-3_____建築
  6
CONTINUOUS
 62
    3
 10
54653.515000000007
 20
42639
 11
54653.515000000007
 21
44539
  0
LINE
  8
_0-3_____建築
  6
CONTINUOUS
 62
    3
 10
54653.515000000007
 20
44539
 11
52356.514999999999
 21
44539
  0
LINE
  8
_0-3_____建築
  6
CONTINUOUS
 62
    3
 10
52356.514999999999
 20
44539
 11
52356.514999999999
 21
42639
  0
LINE
  8
_0-3_____建築
  6
CONTINUOUS
 62
    3
 10
52356.514999999999
 20
42639
 11
54653.515000000007
 21
42639
  0
LINE
  8
_0-3_____建築
  6
CONTINUOUS
 62
    3
 10
52306.514999999999
 20
44589
 11
52306.514999999999
 21
44672.332999999999
  0
LINE
  8
_0-3_____建築
  6
CONTINUOUS
 62
    3
 10
52306.514999999999
 20
44672.332999999999
 11
52306.514999999999
 21
44805.667000000001
  0
LINE
  8
_0-3_____建築
  6
CONTINUOUS
 62
    3
 10
52306.514999999999
 20
44805.667000000001
 11
52306.514999999999
 21
44839
  0
LINE
  8
_0-3_____建築
  6
CONTINUOUS
 62
    3
 10
54703.515000000007
 20
44589
 11
54703.515000000007
 21
44672.332999999999
  0
LINE
  8
_0-3_____建築
  6
CONTINUOUS
 62
    3
 10
54703.515000000007
 20
44672.332999999999
 11
54703.515000000007
 21
44805.667000000001
  0
LINE
  8
_0-3_____建築
  6
CONTINUOUS
 62
    3
 10
54703.515000000007
 20
44805.667000000001
 11
54703.515000000007
 21
44839
  0
LINE
  8
_0-3_____建築
  6
CONTINUOUS
 62
    3
 10
52306.514999999999
 20
44589
 11
54703.515000000007
 21
44589
  0
LINE
  8
_0-3_____建築
  6
CONTINUOUS
 62
    3
 10
52306.514999999999
 20
44672.332999999999
 11
54703.515000000007
 21
44672.332999999999
  0
LINE
  8
_0-3_____建築
  6
CONTINUOUS
 62
    3
 10
52306.514999999999
 20
44805.667000000001
 11
54703.515000000007
 21
44805.667000000001
  0
LINE
  8
_0-3_____建築
  6
CONTINUOUS
 62
    3
 10
52306.514999999999
 20
44839
 11
54703.515000000007
 21
44839
  0
LINE
  8
_0-3_____建築
  6
CONTINUOUS
 62
    3
 10
53069.324000000008
 20
47577.243000000002
 11
53069.324000000008
 21
46582.366000000002
  0
LINE
  8
_0-3_____建築
  6
CONTINUOUS
 62
    3
 10
53069.324000000008
 20
46541.991999999998
 11
53069.324000000008
 21
46459.491999999998
  0
LINE
  8
_0-3_____建築
  6
CONTINUOUS
 62
    3
 10
53069.324000000008
 20
46429.491999999998
 11
53069.324000000008
 21
46361.991999999998
  0
LINE
  8
_0-3_____建築
  6
CONTINUOUS
 62
    3
 10
53069.324000000008
 20
46331.992000000006
 11
53069.324000000008
 21
46264.491999999998
  0
LINE
  8
_0-3_____建築
  6
CONTINUOUS
 62
    3
 10
53069.324000000008
 20
46234.491999999998
 11
53069.324000000008
 21
46171
  0
LINE
  8
_0-3_____建築
  6
CONTINUOUS
 62
    3
 10
53019.324000000008
 20
46171
 11
53019.324000000008
 21
46234.491999999998
  0
LINE
  8
_0-3_____建築
  6
CONTINUOUS
 62
    3
 10
53019.324000000008
 20
46264.491999999998
 11
53019.324000000008
 21
46331.992000000006
  0
LINE
  8
_0-3_____建築
  6
CONTINUOUS
 62
    3
 10
53019.324000000008
 20
46361.991999999998
 11
53019.324000000008
 21
46429.491999999998
  0
LINE
  8
_0-3_____建築
  6
CONTINUOUS
 62
    3
 10
53019.324000000008
 20
46459.491999999998
 11
53019.324000000008
 21
46541.991999999998
  0
LINE
  8
_0-3_____建築
  6
CONTINUOUS
 62
    3
 10
53019.324000000008
 20
46582.366000000002
 11
53019.324000000008
 21
47527.243000000002
  0
LINE
  8
_0-3_____建築
  6
CONTINUOUS
 62
    3
 10
53019.324000000008
 20
47527.243000000002
 11
52365.774999999994
 21
47527.243000000002
  0
LINE
  8
_0-3_____建築
  6
CONTINUOUS
 62
    3
 10
52365.774999999994
 20
47527.243000000002
 11
52365.774999999994
 21
46582.366000000002
  0
LINE
  8
_0-3_____建築
  6
CONTINUOUS
 62
    3
 10
52365.774999999994
 20
46541.991999999998
 11
52365.774999999994
 21
46459.491999999998
  0
LINE
  8
_0-3_____建築
  6
CONTINUOUS
 62
    3
 10
52365.774999999994
 20
46429.491999999998
 11
52365.774999999994
 21
46361.991999999998
  0
LINE
  8
_0-3_____建築
  6
CONTINUOUS
 62
    3
 10
52365.774999999994
 20
46331.992000000006
 11
52365.774999999994
 21
46264.491999999998
  0
LINE
  8
_0-3_____建築
  6
CONTINUOUS
 62
    3
 10
52365.774999999994
 20
46234.491999999998
 11
52365.774999999994
 21
46171
  0
LINE
  8
_0-3_____建築
  6
CONTINUOUS
 62
    3
 10
53722.873000000007
 20
46171
 11
53722.873000000007
 21
46234.491999999998
  0
LINE
  8
_0-3_____建築
  6
CONTINUOUS
 62
    3
 10
53722.873000000007
 20
46264.491999999998
 11
53722.873000000007
 21
46331.992000000006
  0
LINE
  8
_0-3_____建築
  6
CONTINUOUS
 62
    3
 10
53722.873000000007
 20
46361.991999999998
 11
53722.873000000007
 21
46429.491999999998
  0
LINE
  8
_0-3_____建築
  6
CONTINUOUS
 62
    3
 10
53722.873000000007
 20
46459.491999999998
 11
53722.873000000007
 21
46541.991999999998
  0
LINE
  8
_0-3_____建築
  6
CONTINUOUS
 62
    3
 10
53722.873000000007
 20
46582.366000000002
 11
53722.873000000007
 21
47527.243000000002
  0
LINE
  8
_0-3_____建築
  6
CONTINUOUS
 62
    3
 10
53722.873000000007
 20
47527.243000000002
 11
53069.324000000008
 21
47527.243000000002
  0
LINE
  8
_0-3_____建築
  6
CONTINUOUS
 62
    3
 10
53822.873000000007
 20
47627.243000000002
 11
53822.873000000007
 21
46582.366000000002
  0
LINE
  8
_0-3_____建築
  6
CONTINUOUS
 62
    3
 10
53822.873000000007
 20
46541.991999999998
 11
53822.873000000007
 21
46459.491999999998
  0
LINE
  8
_0-3_____建築
  6
CONTINUOUS
 62
    3
 10
53822.873000000007
 20
46429.491999999998
 11
53822.873000000007
 21
46361.991999999998
  0
LINE
  8
_0-3_____建築
  6
CONTINUOUS
 62
    3
 10
53822.873000000007
 20
46331.992000000006
 11
53822.873000000007
 21
46264.491999999998
  0
LINE
  8
_0-3_____建築
  6
CONTINUOUS
 62
    3
 10
53822.873000000007
 20
46234.491999999998
 11
53822.873000000007
 21
46171
  0
LINE
  8
_0-3_____建築
  6
CONTINUOUS
 62
    3
 10
52265.774999999994
 20
46171
 11
52265.774999999994
 21
46234.491999999998
  0
LINE
  8
_0-3_____建築
  6
CONTINUOUS
 62
    3
 10
52265.774999999994
 20
46264.491999999998
 11
52265.774999999994
 21
46331.992000000006
  0
LINE
  8
_0-3_____建築
  6
CONTINUOUS
 62
    3
 10
52265.774999999994
 20
46361.991999999998
 11
52265.774999999994
 21
46429.491999999998
  0
LINE
  8
_0-3_____建築
  6
CONTINUOUS
 62
    3
 10
52265.774999999994
 20
46459.491999999998
 11
52265.774999999994
 21
46541.991999999998
  0
LINE
  8
_0-3_____建築
  6
CONTINUOUS
 62
    3
 10
52265.774999999994
 20
46582.366000000002
 11
52265.774999999994
 21
47627.243000000002
  0
LINE
  8
_0-3_____建築
  6
CONTINUOUS
 62
    3
 10
52265.774999999994
 20
47627.243000000002
 11
53822.873000000007
 21
47627.243000000002
  0
LINE
  8
_0-3_____建築
  6
CONTINUOUS
 62
    3
 10
53772.873000000007
 20
46171
 11
53772.873000000007
 21
46234.491999999998
  0
LINE
  8
_0-3_____建築
  6
CONTINUOUS
 62
    3
 10
53772.873000000007
 20
46264.491999999998
 11
53772.873000000007
 21
46331.992000000006
  0
LINE
  8
_0-3_____建築
  6
CONTINUOUS
 62
    3
 10
53772.873000000007
 20
46361.991999999998
 11
53772.873000000007
 21
46429.491999999998
  0
LINE
  8
_0-3_____建築
  6
CONTINUOUS
 62
    3
 10
53772.873000000007
 20
46459.491999999998
 11
53772.873000000007
 21
46541.991999999998
  0
LINE
  8
_0-3_____建築
  6
CONTINUOUS
 62
    3
 10
53772.873000000007
 20
46582.366000000002
 11
53772.873000000007
 21
47577.243000000002
  0
LINE
  8
_0-3_____建築
  6
CONTINUOUS
 62
    3
 10
53772.873000000007
 20
47577.243000000002
 11
52315.774999999994
 21
47577.243000000002
  0
LINE
  8
_0-3_____建築
  6
CONTINUOUS
 62
    3
 10
52315.774999999994
 20
47577.243000000002
 11
52315.774999999994
 21
46582.366000000002
  0
LINE
  8
_0-3_____建築
  6
CONTINUOUS
 62
    3
 10
52315.774999999994
 20
46541.991999999998
 11
52315.774999999994
 21
46459.491999999998
  0
LINE
  8
_0-3_____建築
  6
CONTINUOUS
 62
    3
 10
52315.774999999994
 20
46429.491999999998
 11
52315.774999999994
 21
46361.991999999998
  0
LINE
  8
_0-3_____建築
  6
CONTINUOUS
 62
    3
 10
52315.774999999994
 20
46331.992000000006
 11
52315.774999999994
 21
46264.491999999998
  0
LINE
  8
_0-3_____建築
  6
CONTINUOUS
 62
    3
 10
52315.774999999994
 20
46234.491999999998
 11
52315.774999999994
 21
46171
  0
LINE
  8
_0-3_____建築
  6
CONTINUOUS
 62
    3
 10
58487.252
 20
46545.362999999998
 11
58487.252
 21
47526.131999999998
  0
LINE
  8
_0-3_____建築
  6
CONTINUOUS
 62
    3
 10
58462.252
 20
47526.131999999998
 11
58487.252
 21
47526.131999999998
  0
LINE
  8
_0-3_____建築
  6
CONTINUOUS
 62
    3
 10
58462.252
 20
46545.362999999998
 11
58487.252
 21
46545.362999999998
  0
LINE
  8
_0-3_____建築
  6
CONTINUOUS
 62
    3
 10
48251.918999999994
 20
43701.131000000001
 11
48251.918999999994
 21
43498.910000000003
  0
LINE
  8
_0-3_____建築
  6
CONTINUOUS
 62
    3
 10
48251.918999999994
 20
43498.910000000003
 11
48271.919000000002
 21
43498.910000000003
  0
LINE
  8
_0-3_____建築
  6
CONTINUOUS
 62
    3
 10
48251.918999999994
 20
47526.131999999998
 11
48251.918999999994
 21
47152.023999999998
  0
LINE
  8
_0-3_____建築
  6
CONTINUOUS
 62
    3
 10
48251.918999999994
 20
47526.131999999998
 11
48271.919000000002
 21
47526.131999999998
  0
LINE
  8
_0-3_____建築
  6
CONTINUOUS
 62
    3
 10
48251.918999999994
 20
47152.023999999998
 11
48271.919000000002
 21
47152.023999999998
  0
LINE
  8
_0-3_____建築
  6
CONTINUOUS
 62
    3
 10
50879.146000000001
 20
48297.505000000005
 11
50879.146000000001
 21
48673.832999999999
  0
LINE
  8
_0-3_____建築
  6
CONTINUOUS
 62
    3
 10
50879.146000000001
 20
48673.832999999999
 11
50432.040999999997
 21
48673.832999999999
  0
LINE
  8
_0-3_____建築
  6
CONTINUOUS
 62
    3
 10
50432.040999999997
 20
48673.832999999999
 11
50432.040999999997
 21
48297.505000000005
  0
LINE
  8
_0-3_____建築
  6
CONTINUOUS
 62
    3
 10
50432.040999999997
 20
48297.505000000005
 11
50879.146000000001
 21
48297.505000000005
  0
LINE
  8
_0-3_____建築
  6
CONTINUOUS
 62
    3
 10
50979.146000000001
 20
48197.505000000005
 11
50332.040999999997
 21
48197.505000000005
  0
LINE
  8
_0-3_____建築
  6
CONTINUOUS
 62
    3
 10
50332.040999999997
 20
48197.505000000005
 11
50332.040999999997
 21
48773.832999999999
  0
LINE
  8
_0-3_____建築
  6
CONTINUOUS
 62
    3
 10
50332.040999999997
 20
48773.832999999999
 11
50979.146000000001
 21
48773.832999999999
  0
LINE
  8
_0-3_____建築
  6
CONTINUOUS
 62
    3
 10
50979.146000000001
 20
48773.832999999999
 11
50979.146000000001
 21
48197.505000000005
  0
LINE
  8
_0-3_____建築
  6
CONTINUOUS
 62
    3
 10
50929.146000000001
 20
48247.505000000005
 11
50929.146000000001
 21
48723.832999999999
  0
LINE
  8
_0-3_____建築
  6
CONTINUOUS
 62
    3
 10
50929.146000000001
 20
48723.832999999999
 11
50382.040999999997
 21
48723.832999999999
  0
LINE
  8
_0-3_____建築
  6
CONTINUOUS
 62
    3
 10
50382.040999999997
 20
48723.832999999999
 11
50382.040999999997
 21
48247.505000000005
  0
LINE
  8
_0-3_____建築
  6
CONTINUOUS
 62
    3
 10
50382.040999999997
 20
48247.505000000005
 11
50929.146000000001
 21
48247.505000000005
  0
LINE
  8
_0-3_____建築
  6
CONTINUOUS
 62
    3
 10
53639.457000000002
 20
49106.387000000002
 11
53639.457000000002
 21
49280.495000000003
  0
LINE
  8
_0-3_____建築
  6
CONTINUOUS
 62
    3
 10
53639.457000000002
 20
49280.495000000003
 11
53192.350999999995
 21
49280.495000000003
  0
LINE
  8
_0-3_____建築
  6
CONTINUOUS
 62
    3
 10
53192.350999999995
 20
49280.495000000003
 11
53192.350999999995
 21
49106.387000000002
  0
LINE
  8
_0-3_____建築
  6
CONTINUOUS
 62
    3
 10
53192.350999999995
 20
49106.387000000002
 11
53639.457000000002
 21
49106.387000000002
  0
LINE
  8
_0-3_____建築
  6
CONTINUOUS
 62
    3
 10
53739.457000000002
 20
49006.387000000002
 11
53092.350999999995
 21
49006.387000000002
  0
LINE
  8
_0-3_____建築
  6
CONTINUOUS
 62
    3
 10
53092.350999999995
 20
49006.387000000002
 11
53092.350999999995
 21
49380.495000000003
  0
LINE
  8
_0-3_____建築
  6
CONTINUOUS
 62
    3
 10
53092.350999999995
 20
49380.495000000003
 11
53739.457000000002
 21
49380.495000000003
  0
LINE
  8
_0-3_____建築
  6
CONTINUOUS
 62
    3
 10
53739.457000000002
 20
49380.495000000003
 11
53739.457000000002
 21
49006.387000000002
  0
LINE
  8
_0-3_____建築
  6
CONTINUOUS
 62
    3
 10
53689.457000000002
 20
49056.387000000002
 11
53689.457000000002
 21
49330.495000000003
  0
LINE
  8
_0-3_____建築
  6
CONTINUOUS
 62
    3
 10
53689.457000000002
 20
49330.495000000003
 11
53142.350999999995
 21
49330.495000000003
  0
LINE
  8
_0-3_____建築
  6
CONTINUOUS
 62
    3
 10
53142.350999999995
 20
49330.495000000003
 11
53142.350999999995
 21
49056.387000000002
  0
LINE
  8
_0-3_____建築
  6
CONTINUOUS
 62
    3
 10
53142.350999999995
 20
49056.387000000002
 11
53689.457000000002
 21
49056.387000000002
  0
LINE
  8
_0-3_____建築
  6
CONTINUOUS
 62
    3
 10
58482.252000000008
 20
46140.921999999999
 11
58482.252000000008
 21
46545.362999999998
  0
LINE
  8
_0-3_____建築
  6
CONTINUOUS
 62
    3
 10
58482.252000000008
 20
46140.921999999999
 11
58463.412000000004
 21
46140.921999999999
  0
LINE
  8
_0-2_____基礎
  6
CONTINUOUS
 62
    1
 10
59662.252
 20
42400
 11
59662.252
 21
42220
  0
LINE
  8
_0-2_____基礎
  6
CONTINUOUS
 62
    1
 10
59362.252
 20
42400
 11
59362.252
 21
42220
  0
LINE
  8
_0-2_____基礎
  6
CONTINUOUS
 62
    1
 10
59062.252
 20
42400
 11
59062.252
 21
42220
  0
LINE
  8
_0-2_____基礎
  6
CONTINUOUS
 62
    1
 10
58762.252
 20
42400
 11
58762.252
 21
42220
  0
LINE
  8
_0-2_____基礎
  6
CONTINUOUS
 62
    3
 10
58462.252
 20
42400
 11
59677.252
 21
42400
  0
LINE
  8
_0-3_____建築
  6
CONTINUOUS
 62
    3
 10
48420.252
 20
46532.991999999998
 11
48384.252
 21
46532.991999999998
  0
LINE
  8
_0-3_____建築
  6
CONTINUOUS
 62
    3
 10
48420.252
 20
46171
 11
48420.252
 21
46234.491999999998
  0
LINE
  8
_0-3_____建築
  6
CONTINUOUS
 62
    3
 10
48420.252
 20
46264.491999999998
 11
48420.252
 21
46331.992000000006
  0
LINE
  8
_0-3_____建築
  6
CONTINUOUS
 62
    3
 10
48420.252
 20
46361.991999999998
 11
48420.252
 21
46429.491999999998
  0
LINE
  8
_0-3_____建築
  6
CONTINUOUS
 62
    3
 10
48420.252
 20
46459.491999999998
 11
48420.252
 21
46532.991999999998
  0
LINE
  8
_0-3_____建築
  6
CONTINUOUS
 62
    3
 10
48384.252
 20
46171
 11
48384.252
 21
46234.491999999998
  0
LINE
  8
_0-3_____建築
  6
CONTINUOUS
 62
    3
 10
48384.252
 20
46264.491999999998
 11
48384.252
 21
46331.992000000006
  0
LINE
  8
_0-3_____建築
  6
CONTINUOUS
 62
    3
 10
48384.252
 20
46361.991999999998
 11
48384.252
 21
46429.491999999998
  0
LINE
  8
_0-3_____建築
  6
CONTINUOUS
 62
    3
 10
48384.252
 20
46459.491999999998
 11
48384.252
 21
46532.991999999998
  0
LINE
  8
_0-3_____建築
  6
CONTINUOUS
 62
    3
 10
48354.251999999993
 20
46234.491999999998
 11
48384.252
 21
46234.491999999998
  0
LINE
  8
_0-3_____建築
  6
CONTINUOUS
 62
    3
 10
48384.252
 20
46234.491999999998
 11
48384.252
 21
46264.491999999998
  0
LINE
  8
_0-3_____建築
  6
CONTINUOUS
 62
    3
 10
48384.252
 20
46264.491999999998
 11
48354.251999999993
 21
46264.491999999998
  0
LINE
  8
_0-3_____建築
  6
CONTINUOUS
 62
    3
 10
48354.251999999993
 20
46264.491999999998
 11
48354.251999999993
 21
46234.491999999998
  0
LINE
  8
_0-3_____建築
  6
CONTINUOUS
 62
    3
 10
48354.251999999993
 20
46331.992000000006
 11
48384.252
 21
46331.992000000006
  0
LINE
  8
_0-3_____建築
  6
CONTINUOUS
 62
    3
 10
48384.252
 20
46331.992000000006
 11
48384.252
 21
46361.991999999998
  0
LINE
  8
_0-3_____建築
  6
CONTINUOUS
 62
    3
 10
48384.252
 20
46361.991999999998
 11
48354.251999999993
 21
46361.991999999998
  0
LINE
  8
_0-3_____建築
  6
CONTINUOUS
 62
    3
 10
48354.251999999993
 20
46361.991999999998
 11
48354.251999999993
 21
46331.992000000006
  0
LINE
  8
_0-3_____建築
  6
CONTINUOUS
 62
    3
 10
48354.251999999993
 20
46429.491999999998
 11
48384.252
 21
46429.491999999998
  0
LINE
  8
_0-3_____建築
  6
CONTINUOUS
 62
    3
 10
48384.252
 20
46429.491999999998
 11
48384.252
 21
46459.491999999998
  0
LINE
  8
_0-3_____建築
  6
CONTINUOUS
 62
    3
 10
48384.252
 20
46459.491999999998
 11
48354.251999999993
 21
46459.491999999998
  0
LINE
  8
_0-3_____建築
  6
CONTINUOUS
 62
    3
 10
48354.251999999993
 20
46459.491999999998
 11
48354.251999999993
 21
46429.491999999998
  0
LINE
  8
_0-3_____建築
  6
CONTINUOUS
 62
    3
 10
58161.981
 20
46532.991999999998
 11
58125.981
 21
46532.991999999998
  0
LINE
  8
_0-3_____建築
  6
CONTINUOUS
 62
    3
 10
58161.981
 20
46171
 11
58161.981
 21
46532.991999999998
  0
LINE
  8
_0-3_____建築
  6
CONTINUOUS
 62
    3
 10
58125.981
 20
46171
 11
58125.981
 21
46532.991999999998
  0
LINE
  8
_0-3_____建築
  6
CONTINUOUS
 62
    3
 10
57564.234999999993
 20
46532.991999999998
 11
57528.234999999993
 21
46532.991999999998
  0
LINE
  8
_0-3_____建築
  6
CONTINUOUS
 62
    3
 10
57564.234999999993
 20
46171
 11
57564.234999999993
 21
46532.991999999998
  0
LINE
  8
_0-3_____建築
  6
CONTINUOUS
 62
    3
 10
57528.234999999993
 20
46171
 11
57528.234999999993
 21
46532.991999999998
  0
LINE
  8
_0-3_____建築
  6
CONTINUOUS
 62
    3
 10
56966.489999999998
 20
46532.991999999998
 11
56930.489999999998
 21
46532.991999999998
  0
LINE
  8
_0-3_____建築
  6
CONTINUOUS
 62
    3
 10
56966.489999999998
 20
46171
 11
56966.489999999998
 21
46532.991999999998
  0
LINE
  8
_0-3_____建築
  6
CONTINUOUS
 62
    3
 10
56930.489999999998
 20
46171
 11
56930.489999999998
 21
46532.991999999998
  0
LINE
  8
_0-3_____建築
  6
CONTINUOUS
 62
    3
 10
56368.745000000003
 20
46532.991999999998
 11
56332.745000000003
 21
46532.991999999998
  0
LINE
  8
_0-3_____建築
  6
CONTINUOUS
 62
    3
 10
56368.745000000003
 20
46171
 11
56368.745000000003
 21
46532.991999999998
  0
LINE
  8
_0-3_____建築
  6
CONTINUOUS
 62
    3
 10
56332.745000000003
 20
46171
 11
56332.745000000003
 21
46532.991999999998
  0
LINE
  8
_0-3_____建築
  6
CONTINUOUS
 62
    3
 10
55771
 20
46532.991999999998
 11
55735
 21
46532.991999999998
  0
LINE
  8
_0-3_____建築
  6
CONTINUOUS
 62
    3
 10
55771
 20
46171
 11
55771
 21
46532.991999999998
  0
LINE
  8
_0-3_____建築
  6
CONTINUOUS
 62
    3
 10
55735
 20
46171
 11
55735
 21
46532.991999999998
  0
LINE
  8
_0-3_____建築
  6
CONTINUOUS
 62
    3
 10
55173.254000000001
 20
46532.991999999998
 11
55137.253999999994
 21
46532.991999999998
  0
LINE
  8
_0-3_____建築
  6
CONTINUOUS
 62
    3
 10
55173.254000000001
 20
46171
 11
55173.254000000001
 21
46532.991999999998
  0
LINE
  8
_0-3_____建築
  6
CONTINUOUS
 62
    3
 10
55137.253999999994
 20
46171
 11
55137.253999999994
 21
46532.991999999998
  0
LINE
  8
_0-3_____建築
  6
CONTINUOUS
 62
    3
 10
54575.508999999998
 20
46532.991999999998
 11
54539.508999999998
 21
46532.991999999998
  0
LINE
  8
_0-3_____建築
  6
CONTINUOUS
 62
    3
 10
54575.508999999998
 20
46171
 11
54575.508999999998
 21
46532.991999999998
  0
LINE
  8
_0-3_____建築
  6
CONTINUOUS
 62
    3
 10
54539.508999999998
 20
46171
 11
54539.508999999998
 21
46532.991999999998
  0
LINE
  8
_0-3_____建築
  6
CONTINUOUS
 62
    3
 10
53977.764000000003
 20
46532.991999999998
 11
53941.764000000003
 21
46532.991999999998
  0
LINE
  8
_0-3_____建築
  6
CONTINUOUS
 62
    3
 10
53977.764000000003
 20
46171
 11
53977.764000000003
 21
46532.991999999998
  0
LINE
  8
_0-3_____建築
  6
CONTINUOUS
 62
    3
 10
53941.764000000003
 20
46171
 11
53941.764000000003
 21
46532.991999999998
  0
LINE
  8
_0-3_____建築
  6
CONTINUOUS
 62
    3
 10
53380.019000000008
 20
46532.991999999998
 11
53344.019
 21
46532.991999999998
  0
LINE
  8
_0-3_____建築
  6
CONTINUOUS
 62
    3
 10
53380.019000000008
 20
46171
 11
53380.019000000008
 21
46532.991999999998
  0
LINE
  8
_0-3_____建築
  6
CONTINUOUS
 62
    3
 10
53344.019
 20
46171
 11
53344.019
 21
46532.991999999998
  0
LINE
  8
_0-3_____建築
  6
CONTINUOUS
 62
    3
 10
52782.273999999998
 20
46532.991999999998
 11
52746.27399999999
 21
46532.991999999998
  0
LINE
  8
_0-3_____建築
  6
CONTINUOUS
 62
    3
 10
52782.273999999998
 20
46171
 11
52782.273999999998
 21
46532.991999999998
  0
LINE
  8
_0-3_____建築
  6
CONTINUOUS
 62
    3
 10
52746.27399999999
 20
46171
 11
52746.27399999999
 21
46532.991999999998
  0
LINE
  8
_0-3_____建築
  6
CONTINUOUS
 62
    3
 10
52184.527999999998
 20
46532.991999999998
 11
52148.527999999998
 21
46532.991999999998
  0
LINE
  8
_0-3_____建築
  6
CONTINUOUS
 62
    3
 10
52184.527999999998
 20
46171
 11
52184.527999999998
 21
46532.991999999998
  0
LINE
  8
_0-3_____建築
  6
CONTINUOUS
 62
    3
 10
52148.527999999998
 20
46171
 11
52148.527999999998
 21
46532.991999999998
  0
LINE
  8
_0-3_____建築
  6
CONTINUOUS
 62
    3
 10
51586.783000000003
 20
46532.991999999998
 11
51550.783000000003
 21
46532.991999999998
  0
LINE
  8
_0-3_____建築
  6
CONTINUOUS
 62
    3
 10
51586.783000000003
 20
46171
 11
51586.783000000003
 21
46532.991999999998
  0
LINE
  8
_0-3_____建築
  6
CONTINUOUS
 62
    3
 10
51550.783000000003
 20
46171
 11
51550.783000000003
 21
46532.991999999998
  0
LINE
  8
_0-3_____建築
  6
CONTINUOUS
 62
    3
 10
50989.038
 20
46532.991999999998
 11
50953.038
 21
46532.991999999998
  0
LINE
  8
_0-3_____建築
  6
CONTINUOUS
 62
    3
 10
50989.038
 20
46171
 11
50989.038
 21
46532.991999999998
  0
LINE
  8
_0-3_____建築
  6
CONTINUOUS
 62
    3
 10
50953.038
 20
46171
 11
50953.038
 21
46532.991999999998
  0
LINE
  8
_0-3_____建築
  6
CONTINUOUS
 62
    3
 10
50391.293000000005
 20
46532.991999999998
 11
50355.292999999998
 21
46532.991999999998
  0
LINE
  8
_0-3_____建築
  6
CONTINUOUS
 62
    3
 10
50391.293000000005
 20
46171
 11
50391.293000000005
 21
46532.991999999998
  0
LINE
  8
_0-3_____建築
  6
CONTINUOUS
 62
    3
 10
50355.292999999998
 20
46171
 11
50355.292999999998
 21
46532.991999999998
  0
LINE
  8
_0-3_____建築
  6
CONTINUOUS
 62
    3
 10
49793.547999999995
 20
46532.991999999998
 11
49757.547999999995
 21
46532.991999999998
  0
LINE
  8
_0-3_____建築
  6
CONTINUOUS
 62
    3
 10
49793.547999999995
 20
46171
 11
49793.547999999995
 21
46532.991999999998
  0
LINE
  8
_0-3_____建築
  6
CONTINUOUS
 62
    3
 10
49757.547999999995
 20
46171
 11
49757.547999999995
 21
46532.991999999998
  0
LINE
  8
_0-3_____建築
  6
CONTINUOUS
 62
    3
 10
49195.802000000003
 20
46532.991999999998
 11
49159.802000000003
 21
46532.991999999998
  0
LINE
  8
_0-3_____建築
  6
CONTINUOUS
 62
    3
 10
49195.802000000003
 20
46171
 11
49195.802000000003
 21
46532.991999999998
  0
LINE
  8
_0-3_____建築
  6
CONTINUOUS
 62
    3
 10
49159.802000000003
 20
46171
 11
49159.802000000003
 21
46532.991999999998
  0
LINE
  8
_0-3_____建築
  6
CONTINUOUS
 62
    3
 10
48598.057000000001
 20
46532.991999999998
 11
48562.057000000001
 21
46532.991999999998
  0
LINE
  8
_0-3_____建築
  6
CONTINUOUS
 62
    3
 10
48598.057000000001
 20
46171
 11
48598.057000000001
 21
46532.991999999998
  0
LINE
  8
_0-3_____建築
  6
CONTINUOUS
 62
    3
 10
48562.057000000001
 20
46171
 11
48562.057000000001
 21
46532.991999999998
  0
LINE
  8
_0-3_____建築
  6
CONTINUOUS
 62
    3
 10
58393.981
 20
46541.991999999998
 11
58393.981
 21
46574.403999999995
  0
LINE
  8
_0-3_____建築
  6
CONTINUOUS
 62
    3
 10
58393.981
 20
46574.403999999995
 11
58393.981
 21
46574.754000000001
  0
LINE
  8
_0-3_____建築
  6
CONTINUOUS
 62
    3
 10
58393.981
 20
46574.754000000001
 11
58393.981
 21
46575.442999999999
  0
LINE
  8
_0-3_____建築
  6
CONTINUOUS
 62
    3
 10
58393.981
 20
46575.442999999999
 11
58393.981
 21
46576.101000000002
  0
LINE
  8
_0-3_____建築
  6
CONTINUOUS
 62
    3
 10
58393.981
 20
46576.101000000002
 11
58393.981
 21
46576.707000000002
  0
LINE
  8
_0-3_____建築
  6
CONTINUOUS
 62
    3
 10
58393.981
 20
46576.707000000002
 11
58393.981
 21
46577.243000000002
  0
LINE
  8
_0-3_____建築
  6
CONTINUOUS
 62
    3
 10
58393.981
 20
46577.243000000002
 11
58393.981
 21
46577.692999999999
  0
LINE
  8
_0-3_____建築
  6
CONTINUOUS
 62
    3
 10
58393.981
 20
46577.692999999999
 11
58393.981
 21
46578.043000000005
  0
LINE
  8
_0-3_____建築
  6
CONTINUOUS
 62
    3
 10
58393.981
 20
46578.043000000005
 11
58393.981
 21
46578.255000000005
  0
LINE
  8
_0-3_____建築
  6
CONTINUOUS
 62
    3
 10
58393.981
 20
46578.255000000005
 11
58393.981
 21
46580.624000000003
  0
LINE
  8
_0-3_____建築
  6
CONTINUOUS
 62
    3
 10
58393.981
 20
46580.624000000003
 11
58393.981
 21
46582.366000000002
  0
LINE
  8
_0-3_____建築
  6
CONTINUOUS
 62
    3
 10
48330.057000000001
 20
46541.991999999998
 11
48330.057000000001
 21
46574.403999999995
  0
LINE
  8
_0-3_____建築
  6
CONTINUOUS
 62
    3
 10
48330.057000000001
 20
46574.403999999995
 11
48330.057000000001
 21
46574.754000000001
  0
LINE
  8
_0-3_____建築
  6
CONTINUOUS
 62
    3
 10
48330.057000000001
 20
46574.754000000001
 11
48330.057000000001
 21
46575.442999999999
  0
LINE
  8
_0-3_____建築
  6
CONTINUOUS
 62
    3
 10
48330.057000000001
 20
46575.442999999999
 11
48330.057000000001
 21
46576.101000000002
  0
LINE
  8
_0-3_____建築
  6
CONTINUOUS
 62
    3
 10
48330.057000000001
 20
46576.101000000002
 11
48330.057000000001
 21
46576.707000000002
  0
LINE
  8
_0-3_____建築
  6
CONTINUOUS
 62
    3
 10
48330.057000000001
 20
46576.707000000002
 11
48330.057000000001
 21
46577.243000000002
  0
LINE
  8
_0-3_____建築
  6
CONTINUOUS
 62
    3
 10
48330.057000000001
 20
46577.243000000002
 11
48330.057000000001
 21
46577.692999999999
  0
LINE
  8
_0-3_____建築
  6
CONTINUOUS
 62
    3
 10
48330.057000000001
 20
46577.692999999999
 11
48330.057000000001
 21
46578.043000000005
  0
LINE
  8
_0-3_____建築
  6
CONTINUOUS
 62
    3
 10
48330.057000000001
 20
46578.043000000005
 11
48330.057000000001
 21
46578.255000000005
  0
LINE
  8
_0-3_____建築
  6
CONTINUOUS
 62
    3
 10
48330.057000000001
 20
46578.255000000005
 11
48330.057000000001
 21
46580.624000000003
  0
LINE
  8
_0-3_____建築
  6
CONTINUOUS
 62
    3
 10
48330.057000000001
 20
46580.624000000003
 11
48330.057000000001
 21
46582.366000000002
  0
LINE
  8
_0-3_____建築
  6
CONTINUOUS
 62
    3
 10
58393.981
 20
46541.991999999998
 11
58391.060000000005
 21
46541.991999999998
  0
LINE
  8
_0-3_____建築
  6
CONTINUOUS
 62
    3
 10
58331.060000000005
 20
46541.991999999998
 11
48330.057000000001
 21
46541.991999999998
  0
LINE
  8
_0-3_____建築
  6
CONTINUOUS
 62
    3
 10
58393.981
 20
46582.366000000002
 11
48330.057000000001
 21
46582.366000000002
  0
LINE
  8
_0-3_____建築
  6
CONTINUOUS
 62
    3
 10
58393.981
 20
46234.491999999998
 11
58393.981
 21
46264.491999999998
  0
LINE
  8
_0-3_____建築
  6
CONTINUOUS
 62
    3
 10
48330.057000000001
 20
46234.491999999998
 11
48330.057000000001
 21
46264.491999999998
  0
LINE
  8
_0-3_____建築
  6
CONTINUOUS
 62
    3
 10
58393.981
 20
46234.491999999998
 11
58344.060000000005
 21
46234.491999999998
  0
LINE
  8
_0-3_____建築
  6
CONTINUOUS
 62
    3
 10
58314.059999999998
 20
46234.491999999998
 11
58161.981
 21
46234.491999999998
  0
LINE
  8
_0-3_____建築
  6
CONTINUOUS
 62
    3
 10
58125.981
 20
46234.491999999998
 11
57564.234999999993
 21
46234.491999999998
  0
LINE
  8
_0-3_____建築
  6
CONTINUOUS
 62
    3
 10
57528.234999999993
 20
46234.491999999998
 11
56966.489999999998
 21
46234.491999999998
  0
LINE
  8
_0-3_____建築
  6
CONTINUOUS
 62
    3
 10
56930.489999999998
 20
46234.491999999998
 11
56368.745000000003
 21
46234.491999999998
  0
LINE
  8
_0-3_____建築
  6
CONTINUOUS
 62
    3
 10
56332.745000000003
 20
46234.491999999998
 11
55771
 21
46234.491999999998
  0
LINE
  8
_0-3_____建築
  6
CONTINUOUS
 62
    3
 10
55735
 20
46234.491999999998
 11
55173.254000000001
 21
46234.491999999998
  0
LINE
  8
_0-3_____建築
  6
CONTINUOUS
 62
    3
 10
55137.253999999994
 20
46234.491999999998
 11
54575.508999999998
 21
46234.491999999998
  0
LINE
  8
_0-3_____建築
  6
CONTINUOUS
 62
    3
 10
54539.508999999998
 20
46234.491999999998
 11
53977.764000000003
 21
46234.491999999998
  0
LINE
  8
_0-3_____建築
  6
CONTINUOUS
 62
    3
 10
53941.764000000003
 20
46234.491999999998
 11
53380.019000000008
 21
46234.491999999998
  0
LINE
  8
_0-3_____建築
  6
CONTINUOUS
 62
    3
 10
53344.019
 20
46234.491999999998
 11
52782.273999999998
 21
46234.491999999998
  0
LINE
  8
_0-3_____建築
  6
CONTINUOUS
 62
    3
 10
52746.27399999999
 20
46234.491999999998
 11
52184.527999999998
 21
46234.491999999998
  0
LINE
  8
_0-3_____建築
  6
CONTINUOUS
 62
    3
 10
52148.527999999998
 20
46234.491999999998
 11
51586.783000000003
 21
46234.491999999998
  0
LINE
  8
_0-3_____建築
  6
CONTINUOUS
 62
    3
 10
51550.783000000003
 20
46234.491999999998
 11
50989.038
 21
46234.491999999998
  0
LINE
  8
_0-3_____建築
  6
CONTINUOUS
 62
    3
 10
50953.038
 20
46234.491999999998
 11
50391.293000000005
 21
46234.491999999998
  0
LINE
  8
_0-3_____建築
  6
CONTINUOUS
 62
    3
 10
50355.292999999998
 20
46234.491999999998
 11
49793.547999999995
 21
46234.491999999998
  0
LINE
  8
_0-3_____建築
  6
CONTINUOUS
 62
    3
 10
49757.547999999995
 20
46234.491999999998
 11
49195.802000000003
 21
46234.491999999998
  0
LINE
  8
_0-3_____建築
  6
CONTINUOUS
 62
    3
 10
49159.802000000003
 20
46234.491999999998
 11
48598.057000000001
 21
46234.491999999998
  0
LINE
  8
_0-3_____建築
  6
CONTINUOUS
 62
    3
 10
48562.057000000001
 20
46234.491999999998
 11
48384.252
 21
46234.491999999998
  0
LINE
  8
_0-3_____建築
  6
CONTINUOUS
 62
    3
 10
48354.251999999993
 20
46234.491999999998
 11
48330.057000000001
 21
46234.491999999998
  0
LINE
  8
_0-3_____建築
  6
CONTINUOUS
 62
    3
 10
58393.981
 20
46264.491999999998
 11
58344.060000000005
 21
46264.491999999998
  0
LINE
  8
_0-3_____建築
  6
CONTINUOUS
 62
    3
 10
58314.059999999998
 20
46264.491999999998
 11
58161.981
 21
46264.491999999998
  0
LINE
  8
_0-3_____建築
  6
CONTINUOUS
 62
    3
 10
58125.981
 20
46264.491999999998
 11
57564.234999999993
 21
46264.491999999998
  0
LINE
  8
_0-3_____建築
  6
CONTINUOUS
 62
    3
 10
57528.234999999993
 20
46264.491999999998
 11
56966.489999999998
 21
46264.491999999998
  0
LINE
  8
_0-3_____建築
  6
CONTINUOUS
 62
    3
 10
56930.489999999998
 20
46264.491999999998
 11
56368.745000000003
 21
46264.491999999998
  0
LINE
  8
_0-3_____建築
  6
CONTINUOUS
 62
    3
 10
56332.745000000003
 20
46264.491999999998
 11
55771
 21
46264.491999999998
  0
LINE
  8
_0-3_____建築
  6
CONTINUOUS
 62
    3
 10
55735
 20
46264.491999999998
 11
55173.254000000001
 21
46264.491999999998
  0
LINE
  8
_0-3_____建築
  6
CONTINUOUS
 62
    3
 10
55137.253999999994
 20
46264.491999999998
 11
54575.508999999998
 21
46264.491999999998
  0
LINE
  8
_0-3_____建築
  6
CONTINUOUS
 62
    3
 10
54539.508999999998
 20
46264.491999999998
 11
53977.764000000003
 21
46264.491999999998
  0
LINE
  8
_0-3_____建築
  6
CONTINUOUS
 62
    3
 10
53941.764000000003
 20
46264.491999999998
 11
53380.019000000008
 21
46264.491999999998
  0
LINE
  8
_0-3_____建築
  6
CONTINUOUS
 62
    3
 10
53344.019
 20
46264.491999999998
 11
52782.273999999998
 21
46264.491999999998
  0
LINE
  8
_0-3_____建築
  6
CONTINUOUS
 62
    3
 10
52746.27399999999
 20
46264.491999999998
 11
52184.527999999998
 21
46264.491999999998
  0
LINE
  8
_0-3_____建築
  6
CONTINUOUS
 62
    3
 10
52148.527999999998
 20
46264.491999999998
 11
51586.783000000003
 21
46264.491999999998
  0
LINE
  8
_0-3_____建築
  6
CONTINUOUS
 62
    3
 10
51550.783000000003
 20
46264.491999999998
 11
50989.038
 21
46264.491999999998
  0
LINE
  8
_0-3_____建築
  6
CONTINUOUS
 62
    3
 10
50953.038
 20
46264.491999999998
 11
50391.293000000005
 21
46264.491999999998
  0
LINE
  8
_0-3_____建築
  6
CONTINUOUS
 62
    3
 10
50355.292999999998
 20
46264.491999999998
 11
49793.547999999995
 21
46264.491999999998
  0
LINE
  8
_0-3_____建築
  6
CONTINUOUS
 62
    3
 10
49757.547999999995
 20
46264.491999999998
 11
49195.802000000003
 21
46264.491999999998
  0
LINE
  8
_0-3_____建築
  6
CONTINUOUS
 62
    3
 10
49159.802000000003
 20
46264.491999999998
 11
48598.057000000001
 21
46264.491999999998
  0
LINE
  8
_0-3_____建築
  6
CONTINUOUS
 62
    3
 10
48562.057000000001
 20
46264.491999999998
 11
48384.252
 21
46264.491999999998
  0
LINE
  8
_0-3_____建築
  6
CONTINUOUS
 62
    3
 10
48354.251999999993
 20
46264.491999999998
 11
48330.057000000001
 21
46264.491999999998
  0
LINE
  8
_0-3_____建築
  6
CONTINUOUS
 62
    3
 10
58393.981
 20
46331.992000000006
 11
58393.981
 21
46361.991999999998
  0
LINE
  8
_0-3_____建築
  6
CONTINUOUS
 62
    3
 10
48330.057000000001
 20
46331.992000000006
 11
48330.057000000001
 21
46361.991999999998
  0
LINE
  8
_0-3_____建築
  6
CONTINUOUS
 62
    3
 10
58393.981
 20
46331.992000000006
 11
58344.060000000005
 21
46331.992000000006
  0
LINE
  8
_0-3_____建築
  6
CONTINUOUS
 62
    3
 10
58314.059999999998
 20
46331.992000000006
 11
58161.981
 21
46331.992000000006
  0
LINE
  8
_0-3_____建築
  6
CONTINUOUS
 62
    3
 10
58125.981
 20
46331.992000000006
 11
57564.234999999993
 21
46331.992000000006
  0
LINE
  8
_0-3_____建築
  6
CONTINUOUS
 62
    3
 10
57528.234999999993
 20
46331.992000000006
 11
56966.489999999998
 21
46331.992000000006
  0
LINE
  8
_0-3_____建築
  6
CONTINUOUS
 62
    3
 10
56930.489999999998
 20
46331.992000000006
 11
56368.745000000003
 21
46331.992000000006
  0
LINE
  8
_0-3_____建築
  6
CONTINUOUS
 62
    3
 10
56332.745000000003
 20
46331.992000000006
 11
55771
 21
46331.992000000006
  0
LINE
  8
_0-3_____建築
  6
CONTINUOUS
 62
    3
 10
55735
 20
46331.992000000006
 11
55173.254000000001
 21
46331.992000000006
  0
LINE
  8
_0-3_____建築
  6
CONTINUOUS
 62
    3
 10
55137.253999999994
 20
46331.992000000006
 11
54575.508999999998
 21
46331.992000000006
  0
LINE
  8
_0-3_____建築
  6
CONTINUOUS
 62
    3
 10
54539.508999999998
 20
46331.992000000006
 11
53977.764000000003
 21
46331.992000000006
  0
LINE
  8
_0-3_____建築
  6
CONTINUOUS
 62
    3
 10
53941.764000000003
 20
46331.992000000006
 11
53380.019000000008
 21
46331.992000000006
  0
LINE
  8
_0-3_____建築
  6
CONTINUOUS
 62
    3
 10
53344.019
 20
46331.992000000006
 11
52782.273999999998
 21
46331.992000000006
  0
LINE
  8
_0-3_____建築
  6
CONTINUOUS
 62
    3
 10
52746.27399999999
 20
46331.992000000006
 11
52184.527999999998
 21
46331.992000000006
  0
LINE
  8
_0-3_____建築
  6
CONTINUOUS
 62
    3
 10
52148.527999999998
 20
46331.992000000006
 11
51586.783000000003
 21
46331.992000000006
  0
LINE
  8
_0-3_____建築
  6
CONTINUOUS
 62
    3
 10
51550.783000000003
 20
46331.992000000006
 11
50989.038
 21
46331.992000000006
  0
LINE
  8
_0-3_____建築
  6
CONTINUOUS
 62
    3
 10
50953.038
 20
46331.992000000006
 11
50391.293000000005
 21
46331.992000000006
  0
LINE
  8
_0-3_____建築
  6
CONTINUOUS
 62
    3
 10
50355.292999999998
 20
46331.992000000006
 11
49793.547999999995
 21
46331.992000000006
  0
LINE
  8
_0-3_____建築
  6
CONTINUOUS
 62
    3
 10
49757.547999999995
 20
46331.992000000006
 11
49195.802000000003
 21
46331.992000000006
  0
LINE
  8
_0-3_____建築
  6
CONTINUOUS
 62
    3
 10
49159.802000000003
 20
46331.992000000006
 11
48598.057000000001
 21
46331.992000000006
  0
LINE
  8
_0-3_____建築
  6
CONTINUOUS
 62
    3
 10
48562.057000000001
 20
46331.992000000006
 11
48384.252
 21
46331.992000000006
  0
LINE
  8
_0-3_____建築
  6
CONTINUOUS
 62
    3
 10
48354.251999999993
 20
46331.992000000006
 11
48330.057000000001
 21
46331.992000000006
  0
LINE
  8
_0-3_____建築
  6
CONTINUOUS
 62
    3
 10
58393.981
 20
46361.991999999998
 11
58344.060000000005
 21
46361.991999999998
  0
LINE
  8
_0-3_____建築
  6
CONTINUOUS
 62
    3
 10
58314.059999999998
 20
46361.991999999998
 11
58161.981
 21
46361.991999999998
  0
LINE
  8
_0-3_____建築
  6
CONTINUOUS
 62
    3
 10
58125.981
 20
46361.991999999998
 11
57564.234999999993
 21
46361.991999999998
  0
LINE
  8
_0-3_____建築
  6
CONTINUOUS
 62
    3
 10
57528.234999999993
 20
46361.991999999998
 11
56966.489999999998
 21
46361.991999999998
  0
LINE
  8
_0-3_____建築
  6
CONTINUOUS
 62
    3
 10
56930.489999999998
 20
46361.991999999998
 11
56368.745000000003
 21
46361.991999999998
  0
LINE
  8
_0-3_____建築
  6
CONTINUOUS
 62
    3
 10
56332.745000000003
 20
46361.991999999998
 11
55771
 21
46361.991999999998
  0
LINE
  8
_0-3_____建築
  6
CONTINUOUS
 62
    3
 10
55735
 20
46361.991999999998
 11
55173.254000000001
 21
46361.991999999998
  0
LINE
  8
_0-3_____建築
  6
CONTINUOUS
 62
    3
 10
55137.253999999994
 20
46361.991999999998
 11
54575.508999999998
 21
46361.991999999998
  0
LINE
  8
_0-3_____建築
  6
CONTINUOUS
 62
    3
 10
54539.508999999998
 20
46361.991999999998
 11
53977.764000000003
 21
46361.991999999998
  0
LINE
  8
_0-3_____建築
  6
CONTINUOUS
 62
    3
 10
53941.764000000003
 20
46361.991999999998
 11
53380.019000000008
 21
46361.991999999998
  0
LINE
  8
_0-3_____建築
  6
CONTINUOUS
 62
    3
 10
53344.019
 20
46361.991999999998
 11
52782.273999999998
 21
46361.991999999998
  0
LINE
  8
_0-3_____建築
  6
CONTINUOUS
 62
    3
 10
52746.27399999999
 20
46361.991999999998
 11
52184.527999999998
 21
46361.991999999998
  0
LINE
  8
_0-3_____建築
  6
CONTINUOUS
 62
    3
 10
52148.527999999998
 20
46361.991999999998
 11
51586.783000000003
 21
46361.991999999998
  0
LINE
  8
_0-3_____建築
  6
CONTINUOUS
 62
    3
 10
51550.783000000003
 20
46361.991999999998
 11
50989.038
 21
46361.991999999998
  0
LINE
  8
_0-3_____建築
  6
CONTINUOUS
 62
    3
 10
50953.038
 20
46361.991999999998
 11
50391.293000000005
 21
46361.991999999998
  0
LINE
  8
_0-3_____建築
  6
CONTINUOUS
 62
    3
 10
50355.292999999998
 20
46361.991999999998
 11
49793.547999999995
 21
46361.991999999998
  0
LINE
  8
_0-3_____建築
  6
CONTINUOUS
 62
    3
 10
49757.547999999995
 20
46361.991999999998
 11
49195.802000000003
 21
46361.991999999998
  0
LINE
  8
_0-3_____建築
  6
CONTINUOUS
 62
    3
 10
49159.802000000003
 20
46361.991999999998
 11
48598.057000000001
 21
46361.991999999998
  0
LINE
  8
_0-3_____建築
  6
CONTINUOUS
 62
    3
 10
48562.057000000001
 20
46361.991999999998
 11
48384.252
 21
46361.991999999998
  0
LINE
  8
_0-3_____建築
  6
CONTINUOUS
 62
    3
 10
48354.251999999993
 20
46361.991999999998
 11
48330.057000000001
 21
46361.991999999998
  0
LINE
  8
_0-3_____建築
  6
CONTINUOUS
 62
    3
 10
58393.981
 20
46429.491999999998
 11
58393.981
 21
46459.491999999998
  0
LINE
  8
_0-3_____建築
  6
CONTINUOUS
 62
    3
 10
48330.057000000001
 20
46429.491999999998
 11
48330.057000000001
 21
46459.491999999998
  0
LINE
  8
_0-3_____建築
  6
CONTINUOUS
 62
    3
 10
58393.981
 20
46429.491999999998
 11
58344.060000000005
 21
46429.491999999998
  0
LINE
  8
_0-3_____建築
  6
CONTINUOUS
 62
    3
 10
58314.059999999998
 20
46429.491999999998
 11
58161.981
 21
46429.491999999998
  0
LINE
  8
_0-3_____建築
  6
CONTINUOUS
 62
    3
 10
58125.981
 20
46429.491999999998
 11
57564.234999999993
 21
46429.491999999998
  0
LINE
  8
_0-3_____建築
  6
CONTINUOUS
 62
    3
 10
57528.234999999993
 20
46429.491999999998
 11
56966.489999999998
 21
46429.491999999998
  0
LINE
  8
_0-3_____建築
  6
CONTINUOUS
 62
    3
 10
56930.489999999998
 20
46429.491999999998
 11
56368.745000000003
 21
46429.491999999998
  0
LINE
  8
_0-3_____建築
  6
CONTINUOUS
 62
    3
 10
56332.745000000003
 20
46429.491999999998
 11
55771
 21
46429.491999999998
  0
LINE
  8
_0-3_____建築
  6
CONTINUOUS
 62
    3
 10
55735
 20
46429.491999999998
 11
55173.254000000001
 21
46429.491999999998
  0
LINE
  8
_0-3_____建築
  6
CONTINUOUS
 62
    3
 10
55137.253999999994
 20
46429.491999999998
 11
54575.508999999998
 21
46429.491999999998
  0
LINE
  8
_0-3_____建築
  6
CONTINUOUS
 62
    3
 10
54539.508999999998
 20
46429.491999999998
 11
53977.764000000003
 21
46429.491999999998
  0
LINE
  8
_0-3_____建築
  6
CONTINUOUS
 62
    3
 10
53941.764000000003
 20
46429.491999999998
 11
53380.019000000008
 21
46429.491999999998
  0
LINE
  8
_0-3_____建築
  6
CONTINUOUS
 62
    3
 10
53344.019
 20
46429.491999999998
 11
52782.273999999998
 21
46429.491999999998
  0
LINE
  8
_0-3_____建築
  6
CONTINUOUS
 62
    3
 10
52746.27399999999
 20
46429.491999999998
 11
52184.527999999998
 21
46429.491999999998
  0
LINE
  8
_0-3_____建築
  6
CONTINUOUS
 62
    3
 10
52148.527999999998
 20
46429.491999999998
 11
51586.783000000003
 21
46429.491999999998
  0
LINE
  8
_0-3_____建築
  6
CONTINUOUS
 62
    3
 10
51550.783000000003
 20
46429.491999999998
 11
50989.038
 21
46429.491999999998
  0
LINE
  8
_0-3_____建築
  6
CONTINUOUS
 62
    3
 10
50953.038
 20
46429.491999999998
 11
50391.293000000005
 21
46429.491999999998
  0
LINE
  8
_0-3_____建築
  6
CONTINUOUS
 62
    3
 10
50355.292999999998
 20
46429.491999999998
 11
49793.547999999995
 21
46429.491999999998
  0
LINE
  8
_0-3_____建築
  6
CONTINUOUS
 62
    3
 10
49757.547999999995
 20
46429.491999999998
 11
49195.802000000003
 21
46429.491999999998
  0
LINE
  8
_0-3_____建築
  6
CONTINUOUS
 62
    3
 10
49159.802000000003
 20
46429.491999999998
 11
48598.057000000001
 21
46429.491999999998
  0
LINE
  8
_0-3_____建築
  6
CONTINUOUS
 62
    3
 10
48562.057000000001
 20
46429.491999999998
 11
48384.252
 21
46429.491999999998
  0
LINE
  8
_0-3_____建築
  6
CONTINUOUS
 62
    3
 10
48354.251999999993
 20
46429.491999999998
 11
48330.057000000001
 21
46429.491999999998
  0
LINE
  8
_0-3_____建築
  6
CONTINUOUS
 62
    3
 10
58393.981
 20
46459.491999999998
 11
58344.060000000005
 21
46459.491999999998
  0
LINE
  8
_0-3_____建築
  6
CONTINUOUS
 62
    3
 10
58314.059999999998
 20
46459.491999999998
 11
58161.981
 21
46459.491999999998
  0
LINE
  8
_0-3_____建築
  6
CONTINUOUS
 62
    3
 10
58125.981
 20
46459.491999999998
 11
57564.234999999993
 21
46459.491999999998
  0
LINE
  8
_0-3_____建築
  6
CONTINUOUS
 62
    3
 10
57528.234999999993
 20
46459.491999999998
 11
56966.489999999998
 21
46459.491999999998
  0
LINE
  8
_0-3_____建築
  6
CONTINUOUS
 62
    3
 10
56930.489999999998
 20
46459.491999999998
 11
56368.745000000003
 21
46459.491999999998
  0
LINE
  8
_0-3_____建築
  6
CONTINUOUS
 62
    3
 10
56332.745000000003
 20
46459.491999999998
 11
55771
 21
46459.491999999998
  0
LINE
  8
_0-3_____建築
  6
CONTINUOUS
 62
    3
 10
55735
 20
46459.491999999998
 11
55173.254000000001
 21
46459.491999999998
  0
LINE
  8
_0-3_____建築
  6
CONTINUOUS
 62
    3
 10
55137.253999999994
 20
46459.491999999998
 11
54575.508999999998
 21
46459.491999999998
  0
LINE
  8
_0-3_____建築
  6
CONTINUOUS
 62
    3
 10
54539.508999999998
 20
46459.491999999998
 11
53977.764000000003
 21
46459.491999999998
  0
LINE
  8
_0-3_____建築
  6
CONTINUOUS
 62
    3
 10
53941.764000000003
 20
46459.491999999998
 11
53380.019000000008
 21
46459.491999999998
  0
LINE
  8
_0-3_____建築
  6
CONTINUOUS
 62
    3
 10
53344.019
 20
46459.491999999998
 11
52782.273999999998
 21
46459.491999999998
  0
LINE
  8
_0-3_____建築
  6
CONTINUOUS
 62
    3
 10
52746.27399999999
 20
46459.491999999998
 11
52184.527999999998
 21
46459.491999999998
  0
LINE
  8
_0-3_____建築
  6
CONTINUOUS
 62
    3
 10
52148.527999999998
 20
46459.491999999998
 11
51586.783000000003
 21
46459.491999999998
  0
LINE
  8
_0-3_____建築
  6
CONTINUOUS
 62
    3
 10
51550.783000000003
 20
46459.491999999998
 11
50989.038
 21
46459.491999999998
  0
LINE
  8
_0-3_____建築
  6
CONTINUOUS
 62
    3
 10
50953.038
 20
46459.491999999998
 11
50391.293000000005
 21
46459.491999999998
  0
LINE
  8
_0-3_____建築
  6
CONTINUOUS
 62
    3
 10
50355.292999999998
 20
46459.491999999998
 11
49793.547999999995
 21
46459.491999999998
  0
LINE
  8
_0-3_____建築
  6
CONTINUOUS
 62
    3
 10
49757.547999999995
 20
46459.491999999998
 11
49195.802000000003
 21
46459.491999999998
  0
LINE
  8
_0-3_____建築
  6
CONTINUOUS
 62
    3
 10
49159.802000000003
 20
46459.491999999998
 11
48598.057000000001
 21
46459.491999999998
  0
LINE
  8
_0-3_____建築
  6
CONTINUOUS
 62
    3
 10
48562.057000000001
 20
46459.491999999998
 11
48384.252
 21
46459.491999999998
  0
LINE
  8
_0-3_____建築
  6
CONTINUOUS
 62
    3
 10
48354.251999999993
 20
46459.491999999998
 11
48330.057000000001
 21
46459.491999999998
  0
LINE
  8
_0-3_____建築
  6
CONTINUOUS
 62
    3
 10
58380.060000000005
 20
46532.991999999998
 11
58344.060000000005
 21
46532.991999999998
  0
LINE
  8
_0-3_____建築
  6
CONTINUOUS
 62
    3
 10
58380.060000000005
 20
46171
 11
58380.060000000005
 21
46234.491999999998
  0
LINE
  8
_0-3_____建築
  6
CONTINUOUS
 62
    3
 10
58380.060000000005
 20
46264.491999999998
 11
58380.060000000005
 21
46331.992000000006
  0
LINE
  8
_0-3_____建築
  6
CONTINUOUS
 62
    3
 10
58380.060000000005
 20
46361.991999999998
 11
58380.060000000005
 21
46429.491999999998
  0
LINE
  8
_0-3_____建築
  6
CONTINUOUS
 62
    3
 10
58380.060000000005
 20
46459.491999999998
 11
58380.060000000005
 21
46532.991999999998
  0
LINE
  8
_0-3_____建築
  6
CONTINUOUS
 62
    3
 10
58344.060000000005
 20
46171
 11
58344.060000000005
 21
46234.491999999998
  0
LINE
  8
_0-3_____建築
  6
CONTINUOUS
 62
    3
 10
58344.060000000005
 20
46264.491999999998
 11
58344.060000000005
 21
46331.992000000006
  0
LINE
  8
_0-3_____建築
  6
CONTINUOUS
 62
    3
 10
58344.060000000005
 20
46361.991999999998
 11
58344.060000000005
 21
46429.491999999998
  0
LINE
  8
_0-3_____建築
  6
CONTINUOUS
 62
    3
 10
58344.060000000005
 20
46459.491999999998
 11
58344.060000000005
 21
46532.991999999998
  0
LINE
  8
_0-3_____建築
  6
CONTINUOUS
 62
    3
 10
58331.060000000005
 20
46541.991999999998
 11
58391.060000000005
 21
46541.991999999998
  0
LINE
  8
_0-3_____建築
  6
CONTINUOUS
 62
    3
 10
58391.060000000005
 20
46541.991999999998
 11
58391.060000000005
 21
46574.403999999995
  0
LINE
  8
_0-3_____建築
  6
CONTINUOUS
 62
    3
 10
58391.060000000005
 20
46574.403999999995
 11
58391.060000000005
 21
46574.754000000001
  0
LINE
  8
_0-3_____建築
  6
CONTINUOUS
 62
    3
 10
58391.060000000005
 20
46574.754000000001
 11
58390.938000000009
 21
46575.442999999999
  0
LINE
  8
_0-3_____建築
  6
CONTINUOUS
 62
    3
 10
58390.938000000009
 20
46575.442999999999
 11
58390.698999999993
 21
46576.101000000002
  0
LINE
  8
_0-3_____建築
  6
CONTINUOUS
 62
    3
 10
58390.698999999993
 20
46576.101000000002
 11
58390.349000000002
 21
46576.707000000002
  0
LINE
  8
_0-3_____建築
  6
CONTINUOUS
 62
    3
 10
58390.349000000002
 20
46576.707000000002
 11
58389.899000000005
 21
46577.243000000002
  0
LINE
  8
_0-3_____建築
  6
CONTINUOUS
 62
    3
 10
58389.899000000005
 20
46577.243000000002
 11
58389.363000000005
 21
46577.692999999999
  0
LINE
  8
_0-3_____建築
  6
CONTINUOUS
 62
    3
 10
58389.363000000005
 20
46577.692999999999
 11
58388.756999999998
 21
46578.043000000005
  0
LINE
  8
_0-3_____建築
  6
CONTINUOUS
 62
    3
 10
58388.756999999998
 20
46578.043000000005
 11
58388.143000000004
 21
46578.255000000005
  0
LINE
  8
_0-3_____建築
  6
CONTINUOUS
 62
    3
 10
58388.143000000004
 20
46578.255000000005
 11
58379.720999999998
 21
46580.624000000003
  0
LINE
  8
_0-3_____建築
  6
CONTINUOUS
 62
    3
 10
58379.720999999998
 20
46580.624000000003
 11
58362.311000000002
 21
46582.366000000002
  0
LINE
  8
_0-3_____建築
  6
CONTINUOUS
 62
    3
 10
58362.311000000002
 20
46582.366000000002
 11
58344.862000000001
 21
46581.058000000005
  0
LINE
  8
_0-3_____建築
  6
CONTINUOUS
 62
    3
 10
58344.862000000001
 20
46581.058000000005
 11
58333.977000000006
 21
46578.255000000005
  0
LINE
  8
_0-3_____建築
  6
CONTINUOUS
 62
    3
 10
58333.977000000006
 20
46578.255000000005
 11
58333.639999999999
 21
46578.160000000003
  0
LINE
  8
_0-3_____建築
  6
CONTINUOUS
 62
    3
 10
58333.639999999999
 20
46578.160000000003
 11
58333.009000000005
 21
46577.856
  0
LINE
  8
_0-3_____建築
  6
CONTINUOUS
 62
    3
 10
58333.009000000005
 20
46577.856
 11
58332.440999999992
 21
46577.447999999997
  0
LINE
  8
_0-3_____建築
  6
CONTINUOUS
 62
    3
 10
58332.440999999992
 20
46577.447999999997
 11
58331.952000000005
 21
46576.947
  0
LINE
  8
_0-3_____建築
  6
CONTINUOUS
 62
    3
 10
58331.952000000005
 20
46576.947
 11
58331.557999999997
 21
46576.368000000002
  0
LINE
  8
_0-3_____建築
  6
CONTINUOUS
 62
    3
 10
58331.557999999997
 20
46576.368000000002
 11
58331.269999999997
 21
46575.729999999996
  0
LINE
  8
_0-3_____建築
  6
CONTINUOUS
 62
    3
 10
58331.269999999997
 20
46575.729999999996
 11
58331.097000000002
 21
46575.051999999996
  0
LINE
  8
_0-3_____建築
  6
CONTINUOUS
 62
    3
 10
58331.097000000002
 20
46575.051999999996
 11
58331.060000000005
 21
46574.403999999995
  0
LINE
  8
_0-3_____建築
  6
CONTINUOUS
 62
    3
 10
58331.060000000005
 20
46574.403999999995
 11
58331.060000000005
 21
46541.991999999998
  0
LINE
  8
_0-3_____建築
  6
CONTINUOUS
 62
    3
 10
58314.059999999998
 20
46234.491999999998
 11
58344.060000000005
 21
46234.491999999998
  0
LINE
  8
_0-3_____建築
  6
CONTINUOUS
 62
    3
 10
58344.060000000005
 20
46234.491999999998
 11
58344.060000000005
 21
46264.491999999998
  0
LINE
  8
_0-3_____建築
  6
CONTINUOUS
 62
    3
 10
58344.060000000005
 20
46264.491999999998
 11
58314.059999999998
 21
46264.491999999998
  0
LINE
  8
_0-3_____建築
  6
CONTINUOUS
 62
    3
 10
58314.059999999998
 20
46264.491999999998
 11
58314.059999999998
 21
46234.491999999998
  0
LINE
  8
_0-3_____建築
  6
CONTINUOUS
 62
    3
 10
58314.059999999998
 20
46331.992000000006
 11
58344.060000000005
 21
46331.992000000006
  0
LINE
  8
_0-3_____建築
  6
CONTINUOUS
 62
    3
 10
58344.060000000005
 20
46331.992000000006
 11
58344.060000000005
 21
46361.991999999998
  0
LINE
  8
_0-3_____建築
  6
CONTINUOUS
 62
    3
 10
58344.060000000005
 20
46361.991999999998
 11
58314.059999999998
 21
46361.991999999998
  0
LINE
  8
_0-3_____建築
  6
CONTINUOUS
 62
    3
 10
58314.059999999998
 20
46361.991999999998
 11
58314.059999999998
 21
46331.992000000006
  0
LINE
  8
_0-3_____建築
  6
CONTINUOUS
 62
    3
 10
58314.059999999998
 20
46429.491999999998
 11
58344.060000000005
 21
46429.491999999998
  0
LINE
  8
_0-3_____建築
  6
CONTINUOUS
 62
    3
 10
58344.060000000005
 20
46429.491999999998
 11
58344.060000000005
 21
46459.491999999998
  0
LINE
  8
_0-3_____建築
  6
CONTINUOUS
 62
    3
 10
58344.060000000005
 20
46459.491999999998
 11
58314.059999999998
 21
46459.491999999998
  0
LINE
  8
_0-3_____建築
  6
CONTINUOUS
 62
    3
 10
58314.059999999998
 20
46459.491999999998
 11
58314.059999999998
 21
46429.491999999998
  0
LINE
  8
_0-3_____建築
  6
CONTINUOUS
 62
    1
 10
58477.252
 20
43498.910000000003
 11
58477.252
 21
42470
  0
LINE
  8
_0-3_____建築
  6
CONTINUOUS
 62
    1
 10
58477.252
 20
42450
 11
58477.252
 21
42400
  0
LINE
  8
_0-3_____建築
  6
CONTINUOUS
 62
    1
 10
58478.252
 20
43498.910000000003
 11
58478.252
 21
42400
  0
LINE
  8
_0-2_____基礎
  6
CONTINUOUS
 62
    3
 10
48302.252
 20
42450
 11
48302.252
 21
42050
  0
LINE
  8
_0-2_____基礎
  6
CONTINUOUS
 62
    3
 10
48452.252
 20
42050
 11
48302.252
 21
42050
  0
LINE
  8
_0-2_____基礎
  6
CONTINUOUS
 62
    3
 10
59677.252
 20
42400
 11
59677.252
 21
42450
  0
LINE
  8
_0-2_____基礎
  6
CONTINUOUS
 62
    3
 10
59677.252
 20
42220
 11
59677.252
 21
42400
  0
LINE
  8
_0-2_____基礎
  6
CONTINUOUS
 62
    3
 10
59827.252
 20
42050
 11
59827.252
 21
42450
  0
LINE
  8
_0-2_____基礎
  6
CONTINUOUS
 62
    3
 10
59677.252
 20
42050
 11
59827.252
 21
42050
  0
LINE
  8
_0-2_____基礎
  6
CONTINUOUS
 62
    3
 10
59677.252
 20
42450
 11
59827.252
 21
42450
  0
LINE
  8
_0-2_____基礎
  6
CONTINUOUS
 62
    1
 10
59377.252
 20
42220
 11
59377.252
 21
42050
  0
LINE
  8
_0-2_____基礎
  6
CONTINUOUS
 62
    1
 10
59077.252
 20
42220
 11
59077.252
 21
42050
  0
LINE
  8
_0-2_____基礎
  6
CONTINUOUS
 62
    1
 10
58777.252
 20
42220
 11
58777.252
 21
42050
  0
LINE
  8
_0-2_____基礎
  6
CONTINUOUS
 62
    1
 10
58477.252
 20
42220
 11
58477.252
 21
42050
  0
LINE
  8
_0-2_____基礎
  6
CONTINUOUS
 62
    3
 10
58462.252
 20
42050
 11
59677.252
 21
42050
  0
LINE
  8
_0-2_____基礎
  6
CONTINUOUS
 62
    3
 10
58462.252
 20
42220
 11
59677.252
 21
42220
  0
LINE
  8
_0-2_____基礎
  6
CONTINUOUS
 62
    3
 10
59677.252
 20
42050
 11
59677.252
 21
42220
  0
LINE
  8
_0-3_____建築
  6
CONTINUOUS
 62
    3
 10
59662.252
 20
42450
 11
59662.252
 21
42470
  0
LINE
  8
_0-3_____建築
  6
CONTINUOUS
 62
    3
 10
59842.251999999993
 20
42450
 11
59842.251999999993
 21
42470
  0
LINE
  8
_0-3_____建築
  6
CONTINUOUS
 62
    3
 10
59662.252
 20
42450
 11
59677.252
 21
42450
  0
LINE
  8
_0-3_____建築
  6
CONTINUOUS
 62
    3
 10
59827.252
 20
42450
 11
59842.251999999993
 21
42450
  0
LINE
  8
_0-3_____建築
  6
CONTINUOUS
 62
    3
 10
59662.252
 20
42470
 11
59677.252
 21
42470
  0
LINE
  8
_0-3_____建築
  6
CONTINUOUS
 62
    3
 10
59827.252
 20
42470
 11
59842.251999999993
 21
42470
  0
LINE
  8
_0-3_____建築
  6
CONTINUOUS
 62
    3
 10
59677.252
 20
42470
 11
59827.252
 21
42470
  0
LINE
  8
_0-3_____建築
  6
CONTINUOUS
 62
    3
 10
59677.252
 20
42470
 11
59677.252
 21
45050
  0
LINE
  8
_0-3_____建築
  6
CONTINUOUS
 62
    3
 10
59827.252
 20
42470
 11
59827.252
 21
45650
  0
LINE
  8
_0-3_____建築
  6
CONTINUOUS
 62
    3
 10
59677.252
 20
45050
 11
58462.252
 21
45050
  0
LINE
  8
_0-3_____建築
  6
CONTINUOUS
 62
    3
 10
59842.251999999993
 20
45680
 11
58463.412000000004
 21
45680
  0
LINE
  8
_0-3_____建築
  6
CONTINUOUS
 62
    3
 10
58463.412000000004
 20
45650
 11
59842.251999999993
 21
45650
  0
LINE
  8
_0-3_____建築
  6
CONTINUOUS
 62
    3
 10
59842.251999999993
 20
45650
 11
59842.251999999993
 21
45680
  0
LINE
  8
_0-3_____建築
  6
CONTINUOUS
 62
    3
 10
48559.252
 20
48373.635999999999
 11
48559.252
 21
48373.302000000003
  0
LINE
  8
_0-3_____建築
  6
CONTINUOUS
 62
    3
 10
48559.809000000001
 20
48330.635999999999
 11
48591.195
 21
48330.635999999999
  0
LINE
  8
_0-3_____建築
  6
CONTINUOUS
 62
    3
 10
48559.252
 20
48373.635999999999
 11
52333.749000000003
 21
50638.544000000002
  0
LINE
  8
_0-3_____建築
  6
CONTINUOUS
 62
    3
 10
52333.749000000003
 20
50638.544000000002
 11
52333.749000000003
 21
50637.635000000002
  0
LINE
  8
_0-3_____建築
  6
CONTINUOUS
 62
    3
 10
58687.252
 20
47525.195
 11
58717.251999999993
 21
47525.195
  0
LINE
  8
_0-3_____建築
  6
CONTINUOUS
 62
    3
 10
52333.749000000003
 20
50638.544000000002
 11
58717.251999999993
 21
50638.544000000002
  0
LINE
  8
_0-3_____建築
  6
CONTINUOUS
 62
    3
 10
58717.251999999993
 20
50638.544000000002
 11
58717.251999999993
 21
50595.544000000002
  0
LINE
  8
_0-3_____建築
  6
CONTINUOUS
 62
    3
 10
58717.251999999993
 20
50595.544000000002
 11
52333.749000000003
 21
50595.544000000002
  0
LINE
  8
_0-3_____建築
  6
CONTINUOUS
 62
    3
 10
58717.251999999993
 20
47525.195
 11
58717.251999999993
 21
48046.473000000005
  0
LINE
  8
_0-3_____建築
  6
CONTINUOUS
 62
    3
 10
58717.251999999993
 20
48697.822
 11
58717.251999999993
 21
50595.544000000002
  0
LINE
  8
_0-3_____建築
  6
CONTINUOUS
 62
    3
 10
52333.749000000003
 20
50594.635000000002
 11
52333.749000000003
 21
50637.635000000002
  0
LINE
  8
_0-3_____建築
  6
CONTINUOUS
 62
    3
 10
48099.252
 20
48097.345999999998
 11
52333.749000000003
 21
50637.635000000002
  0
LINE
  8
_0-3_____建築
  6
CONTINUOUS
 62
    3
 10
52333.749000000003
 20
50594.635000000002
 11
48099.252
 21
48054.345999999998
  0
LINE
  8
_0-3_____建築
  6
CONTINUOUS
 62
    3
 10
48099.252
 20
48054.345999999998
 11
48099.252
 21
48097.345999999998
  0
TEXT
  8
_0-5_____敷地
 62
    3
 10
45939.461000000003
 20
41992.707999999999
 40
266.66666666666663
 41
1
 50
0
  1
　 　▽
  0
ENDSEC
  0
EOF
